Song name
# A B C D E F G H I J K L M N O P Q R S T U V W X Y Z

Our Last Night - Conspiracy tab

-------------------------------------------------------------------------------
                             Conspiracy - Our Last Night
-------------------------------------------------------------------------------
Tabbed by: Adam Guion
E-mail: AdamGuion@Gmail.com

Tuning: Drop C
Really great song, I don't know the difference between riffs and verses so I'll just
call them sections. Also I tabbed out the parts as I learned them so I may have mixed
up the specific parts that each guitar plays on the album. Everything is there, it 
just might not be labeled under the right guitar. As always, alert to to mistakes so 
they can be corrected.
Sorry if it's a a bit messy as well, I got this done in two days and finished it in a 
bit of a rush. Besides that, cheers.

Intro: 0:00-O:04
One Guitar 
D|-----------------------------------|
A|-----------------------------------|
F|-----------------------------------|
C|-------------3333-----------5555---|
G|-----5555------------5555----------|
C|-000------33------888-----55-------|

Section 1 0:04-0:20
D|-------------------------------------------------------------------------------|
A|-------------------------------------------------------------------------------|
F|-----7777---10101010---7777----101010-9-7----7777---10101010---7777---12121212-|
C|-----xxxx---x-x-x-x----xxxx-----x-x-x-x-x----xxxx---x-x-x-x----xxxx----x-x-x-x-|
G|-----5555---8-8-8-8----5555-----8-8-8-7-5----5555---8-8-8-8----5555---10101010-|
C|-000------33--------888-----55------------000-----33--------888-----55---------|
then play the first half again and end on the 5x7

Section 2 0:29-0:39
Guitar One 
D|---------------------------------------------------------------------------|
A|10--10--10--10--10--10--10--10--8--8--8--8--6-6-6-6------------------------|
F|--10--10--10--10--10--10--10--10-10-10-10-10-7-7-7-7-----------------------|
C|---------------------------------------------------------------------------| X2
G|---------------------------------------------------------------------------|
C|---------------------------------------------------------------------------|

Guitar Two
D|---------------------------------------------------------------------------|
A|---------------------------------------------------------------------------|
F|---------------------------------------------------------------------------|
C|---------------------------------------------------------------------------| X2
G|---------------------------------------------------------------------------|
C|-12-X16-10-X8--3-X8--------------------------------------------------------|
 
Section 3 0:40-0:55
Guitar One
D|---------------------------------------------------------------------------|
A|---------------------------------------------------------------------------|
F|-10-9-7-10-9-7-10-9-7-10-9-7-10-9-7-9--------------------------------------|
C|---------------------------------------------------------------------------| X3
G|---------------------------------------------------------------------------|
C|---------------------------------------------------------------------------|
then the fourth time v
D|---------------------------------------------------------------------------|
A|---------------------------------------------------------------------------|
F|-10-9-7-10-9-7-10-9-12-10-9-10-12-10-9-10-7~~~~----------------------------|
C|---------------------------------------------------------------------------|
G|---------------------------------------------------------------------------|
C|---------------------------------------------------------------------------|

Guitar Two
D|---------------------------------------------------------------------------|
A|---------------------------------------------------------------------------|
F|---------------------------------------------------------------------------|
C|---------------------------------------------------------------------------|
G|8-------10--------3--------8--------10-----3-----8~~~~~~xxxx---------------|
C|8-x16---10-x13----3-x3-----8-x16----10-x8--3-x8--8-~~~~~xxxx---------------|

Chorus 0:56-1:30
Guitar One
D|----------------------------------------------------------------------------|
A|----------------------------------------------------------------------------|
F|-----7777---10101010---7777----12121212--------------------7777----12121212-|
C|-----xxxx---x-x-x-x----xxxx-----x-x-x-x--------------------xxxx-------------|
G|-----5555---8-8-8-8----5555----10101010---00-xx-x33-xx-x88-5555-55-10101010-|
C|-000------33--------888-----55------------00-xx-x33-xx-x88------55----------|

D|----------------------------------------------------------------------------|
A|---------------------------------------------3b-----4b----------------------|
F|-----7777---10101010---7777----101010-9-7----6b-----7b----------------------|
C|-----xxxx---x-x-x-x----xxxx-----x-x-x-x-x-----------------------------------|
G|-----5555---8-8-8-8----5555-----8-8-8-7-5--00----33----8-8-8888-55-5555-----|
C|-000------33--------888-----55-------------00----33----8-8-8888-55-5555-----|

Guitar Two
D|---------------------------------------------------------------------------|
A|---------------------------------------------------------------------------|
F|-----10101010---14141414---10101010----1010109-----------------------------|
C|-----x-x-x-x-----x-x-x-x----x-x-x-x----x-x-x-x-----------------------------|
G|-----8-8-8-8----12121212----8-8-8-8----8-8-8-7--00-xx-x33-xx-x88-----------|
C|-000---------33----------888--------55----------00-xx-x33-xx-x88-----------|

D|---------------------------------------------------------------------------|
A|---------------------------------------------------------------------------|
F|-----10101010---14141414---10101010----1010109-----------------------------|
C|-----x-x-x-x-----x-x-x-x----x-x-x-x----x-x-x-x-----------------------------|
G|-----8-8-8-8----12121212----8-8-8-8----8-8-8-7--00-xx-x33-xx-x88~~~~5~~~---|
C|-000---------33----------888--------55----------00-xx-x33-xx-x88~~~~5~~~---|

and then just these chords are played by both guitars, the pattern is easy.
D|---------------------------------------------------------------------------|
A|---------------------------------------------------------------------------|
F|---------------------------------------------------------------------------|
C|---------------------------------------------------------------------------|
G|-0--3--8--5----------------------------------------------------------------|
C|-0--3--8--5----------------------------------------------------------------|

Section 4 1:31-1:45
Guitar One
D|---------------------------------------------------------------------------|
A|-10---------8--------6-----------------------------------------------------|
F|-10-x16-----9-x8-----7--x8-------------------------------------------------|
C|---------------------------------------------------------------------------|
G|---------------------------------------------------------------------------|
C|---------------------------------------------------------------------------|

Guitar Two
D|---------------------------------------------------------------------------|
A|---------------------------------------------------------------------------|
F|---------------------------------------------------------------------------|
C|---------------------------------------------------------------------------|
G|---8---8---8---8-----10------10----5---5-----------------------------------|
C|-00-000-000-000-01010--101010--1055-555-5----------------------------------|

D|---------------------------------------------------------------------------|
A|---------------------------------------------------------------------------|
F|---------------------------------------------------------------------------|
C|---------------------------------------------------------------------------|
G|-1212-121212-121212-121212-121010-101010-1033-333-3------------------------|
C|-1212-121212-121212-121212-121010-101010-1033-333-3------------------------|

D|---------------------------------------------------------------------------|
A|---------------------------------------------------------------------------|
F|---------------------------------------------------------------------------|
C|---------------------------------------------------------------------------|
G|---8---8---8---8-----10------10----5---5-----------------------------------|
C|-00-000-000-000-01010--101010--1055-555-5----------------------------------|

Rpeat Section 3 1:45-2:00
Rpeat Chorus 2:00-2:20

Section 5 2:21-2:56
Guitar One (this may not be the exact pattern, I think the timing is 3/4)
D|---------------------------------------------------------------------------|
A|---------------------------------------------------------------------------|
F|---------------------------------------------------------------------------|
C|-7-0-3-0-2h3-0-7-0-3-0-2-0-that x6-7-3-2h3-7-3-2-7-3-2h3-3-----------------|
G|---------------------------------------------------------------------------|
C|---------------------------------------------------------------------------|

D|---------------------------------------------------------------------------|
A|---------------------------------------------------------------------------|
F|---------------------------------------------------------------------------|
C|-7-0-3-0-2h3-0-7-0-3-0-2-0-------------------------------------------------| X8
G|---------------------------------------------------------------------------|
C|---------------------------------------------------------------------------|

Guitar Two 
D|---------------------------------------------------------------------------|
A|---------------------------------------------------------------------------|
F|---------------------------------------------------------------------------|
C|-8---------10--------0--------3--------------------------------------------|
G|-8-x16-----10-x16----0-x16----3-x16----------------------------------------|
C|-8---------10--------0--------3--------------------------------------------|

Repeat the Intro twice 2:57-3:06

Guitar One
D|---------------------------------------------------------------------------|
A|------6b------7b-----------------------------------------------------------|
F|------3b------4b-------7777-------12121212---------------------------------|
C|-----------------------xxxx--------x-x-x-x---------------------------------|
G|-0-00----3-33-----8-88-5555----55-10101010---------------------------------|
C|-0-00----3-33-----8-88---------55------------------------------------------|

Guitar Two
D|---------------------------------------------------------------------------|
A|---------------------------------------------------------------------------|
F|---------------------------------------------------------------------------|
C|---------------------------------------------------------------------------|
G|-0-00xx-x3-33xx------------------------------------------------------------|
C|-0-00xx-x3-33xx------------------------------------------------------------|

Repeat Chorus 3:06-3:21
 
Outro 3:22-3:33
Guitar One
D|---------------------------------------------------------------------------|
A|-666666666666666666666666666666666666666-----------------------------------|
F|-9999999999999999999999991010101010101010----------------------------------|
C|-0000000000000000000000000-0-0-0-0-0-0-0------x2---------------------------|
G|---------------------------------------------------------0-----------------|
C|---------------------------------------------------------0-----------------|

Guitar Two
D|-------------------------------------------------------------------------------|
A|-------------------------------------------------------------------------------|
F|-------------------------------------------------------------------------------|
C|---------------------------------------------------------------------320--02320|
G|-00-000-0-00~~~00---00-000----5b---------00-000-0-00---00---------------3------|
C|-00-000-0-00~~~00---00-000--0----0-5b0---00-000-0-00---00---00-000-0-----------|

************************************

| /   slide up
| \   slide down
| h   hammer-on
| p   pull-off
| ~   vibrato
| +   harmonic
| x   Mute note
| b   Bend
| pb  Pre-bend
| br  Bend release
| pbr Pre-bend release
| brb Bend release bend

************************************

Tap to rate this tab
# A B C D E F G H I J K L M N O P Q R S T U V W X Y Z