Song name
# A B C D E F G H I J K L M N O P Q R S T U V W X Y Z

Our Last Night - Mouth Machine Gun tab

-------------------------------------------------------------------------------
                             Mouth Machine Gun - Our Last Night
-------------------------------------------------------------------------------
Tabbed by:Adam Guion
E-mail:AdamGuion@Gmail.com

Tuning: Drop C#
So this isn't a completely perfect tab as usual but it's waaaaay better than what's
already on here. Most of the palm mutes are implied because I was too lazy to put in
all the little periods under the numbers. I couldn't figure out all the parts on my own
so I watched this http://www.youtube.com/watch?v=hsiUJ8jQMBk video to get a better grasp
of the song. As always if you find any mistakes or a better way to play a certain part 
leave a comment or correction in the area belooow.

0:00-0:10
Guitar One
D#|---------------------------------------------------------------------------|
A#|---------------------------------------------------------------------------|
F#|---------------------------------------------------------------------------|
C#|----5---5------------------------------------------------------------------| X2
G#|-2--2---3-----1------------------------------------------------------------|
C#|-2------------1------------------------------------------------------------|

Guitar Two
D#|---------------------------------------------------------------------------|
A#|-121212-------------------------121212151515101010-------------------------|
F#|--------12121211111112121212999--------------------------------------------|
C#|---------------------------------------------------------------------------| X2
G#|---------------------------------------------------------------------------|
C#|---------------------------------------------------------------------------|

0:11-0:21
Guitar One
D#|---------------------------------------------------------------------------|
A#|---------------------------------------------------------------------------|
F#|---------------------------------------------------------------------------|
C#|-------5-------------------------------------------------------------------| X2
G#|-2--5--3-------------------------------------------------------------------|
C#|-2--5----------------------------------------------------------------------|

Guitar Two
D#|------------7--------------10---------12-10--------------------------------|
A#|--------6-8---------10--12------------------12-----------------------------|
F#|------9----------12----------------------------12-11-12--------------------|
C#|--------------------------------------------------------12-----------------|
G#|---------------------------------------------------------------------------|
C#|---------------------------------------------------------------------------|

0:22-0:33
Guitar One
D#|---------------------------------------------------------------------------|
A#|---------------------------------------------------------------------------|
F#|---------------------------------99999-11111-------------------------------|
C#|---------------------------------xxxxx-xxxxx-------------------------------|
G#|-2---9--9999991010-------2---9---77777-99999-------------------------------|
C#|-2---9-------------------2---9---------------------------------------------|

Guitar Two
D#|-7----7------------7---7---------------------------------------------------|
A#|-10---8----5-3-----10--8---5-4---------------------------------------------|
F#|---------------------------------------------------------------------------|
C#|---------------------------------------------------------------------------|
G#|---------------------------------------------------------------------------|
C#|---------------------------------------------------------------------------|

0:33-0:44
Both  Guitars
D#|---------------------------------------------------------------------------|
A#|---------------------------------------------------------------------------|
F#|---------------------------------------------------------------------------|
C#|----5--5-------------------------------------------------------------------| X2
G#|-2--2--3--1----------------------------------------------------------------|
C#|-2--------1----------------------------------------------------------------|

0:45-0:49
D#|---------------------------------------------------------------------------|
A#|---------------------------------------------------------------------------|
F#|---------------------------------------------------------------------------|
C#|---------------------------------------------------------------------------|
G#|---------2---------2-------------2---------2-------------------------------|
C#|-2-0-1-2---2-0-1-2----222-0-1-2----2-0-1-2---------------------------------|

0:49-0:53
Guitar One
D#|---------------------------------------------------------------------------|
A#|---------------------------------------------------------------------------|
F#|---------------------------------------------------------------------------|
C#|-5-------------------------------------------------------------------------|
G#|-3-1-----------------------------------------------------------------------|
C#|---1-----------------------------------------------------------------------|

Guitar Two
D#|---------------------------------------------------------------------------|
A#|--------5/7/5---------------10/12/10---------------------------------------|
F#|--------------7-4--------------------12--9---------------------------------|
C#|------------------7-10--12-----------------12------------------------------|
G#|--5--7---------------------------------------------------------------------|
C#|---------------------------------------------------------------------------|

0:54-1:04
Both Guitars
D#|---------------------------------------------------------------------------|
A#|---------------------------------------------------------------------------|
F#|---------------------------------------------------------------------------|
C#|-------------------555-5555--555-5555--------------------------------------|
G#|-222-2222-555-5555-333-3333--333-2222--------------------------------------|
C#|-222-2222-555-5555---------------------------------------------------------|

1:04-1:15
Guitar One
D#|---------------------------------------------------------------------------|
A#|---------------------------------------------------------------------------|
F#|---------------------------------99999-11111-------------------------------|
C#|---------------------------------xxxxx-xxxxx-------------------------------|
G#|-2---9--9999991010-------2---9---77777-99999-------------------------------|
C#|-2---9-------------------2---9---------------------------------------------|

Guitar Two
D#|-7----7------------7---7---------------------------------------------------|
A#|-10---8----5-3-----10--8---5-4---------------------------------------------|
F#|---------------------------------------------------------------------------|
C#|---------------------------------------------------------------------------|
G#|---------------------------------------------------------------------------|
C#|---------------------------------------------------------------------------|

1:15-1:25
Both  Guitars
D#|---------------------------------------------------------------------------|
A#|---------------------------------------------------------------------------|
F#|---------------------------------------------------------------------------|
C#|----5--5-------------------------------------------------------------------|
G#|-2--2--3--1----------------------------------------------------------------|
C#|-2--------1----------------------------------------------------------------|

1:26-1:37
Both Guitars
D#|---------------------------------------------------------------------------|
A#|---------------------------------------------------------------------------|
F#|---------------------------------------------------------------------------|
C#|---------------------------------------------------------------------------|
G#|---------------------------------------------------------------------------|
C#|-2-5-10-9-2-5-10-13--------------------------------------------------------|

1:38-2:06
Guitar One
D#|---------------------------------------------------------------------------|
A#|---------------------------------------------------------------------------|
F#|---------------------------------------------------------------------------|
C#|-2---2----------2---2-5-2-------7----7---7---7-----------------------------| X5
G#|---------------------------------------------------------------------------|
C#|--222--222-2-222--2-------2-75---777---7---7-----11-111--------------------|
    ...  ...   ...  .       .      ...   .   . 
Guitar Two
D#|---------------------------------------------------------------------------|
A#|---------------------------------------------------------------------------|
F#|----------------------4----------------------------------------------------|
C#|-5---5----------5---5---5------10----10---10---10--------------------------| X5
G#|---------------------------------------------------------------------------|
C#|--222--222-2-222--2-------2-75---777---7-----7-----11-111------------------|
     ...  ...   ...  .       .      ...   .     . 



2:06-2:16
Guitar One
D#|------------------------------------------------------------------------------------|
A#|----------------------------------------------------13-13-13-12-12-12---------------|
F#|-----------11-11-11-12-12-12-11-9-9-9-----------999---------------------------------|
C#|-------999-------------------------------101010-----------------------13-13-13-13-13| X2
G#|---777------------------------------------------------------------------------------|
C#|------------------------------------------------------------------------------------|

Guitar Two
D#|---------------------------------------------------------------------------|
A#|---------------------------------------------------------------------------|
F#|---------------------------------------------------------------------------|
C#|---------------------------------------------------------------------------| X2
G#|------2x10---3x6-----------------------------------------------------------|
C#|-2-x6--------------1x10----------------------------------------------------|


D#|-----5*--------------------------------------------------------------------|
A#|-----5*-natural harmonic---------------------------------------------------|
F#|-----5*--------------------------------------------------------------------|
C#|---------------------------------------------------------------------------|
G#|---------------------------------------------------------------------------|
C#|---------------------------------------------------------------------------|

2:17-2:28
Both  Guitars
D#|---------------------------------------------------------------------------|
A#|---------------------------------------------------------------------------|
F#|---------------------------------------------------------------------------|
C#|----5--5-------------------------------------------------------------------|
G#|-2--2--3--1----------------------------------------------------------------|
C#|-2--------1----------------------------------------------------------------|

2:28-2:38
Both Guitars
D#|---------------------------------------------------------------------------|
A#|---------------------------------------------------------------------------|
F#|---------------------------------------------------------------------------|
C#|---------------------------------------------------------------------------|
G#|---------------------------------------------------------------------------|
C#|-2-5-10-9-2-5-10-13--------------------------------------------------------|

2:39-2:50
D#|---------------------------------------------------------------------------|
A#|---------------------------------------------------------------------------|
F#|---------------------------------------------------------------------------|
C#|----5--5-------------------------------------------------------------------|
G#|-2--2--3--1----------------------------------------------------------------|
C#|-2--------1----------------------------------------------------------------|

2:51-3:02
D#|---------------------------------------------------------------------------|
A#|---------------------------------------------------------------------------|
F#|---------------------------------------------------------------------------|
C#|---------------------------------------------------------------------------|
G#|---------------------------------------------------------------------------|
C#|-2-5-10-9-2-5-10-13--------------------------------------------------------|

3:03-3:13
Guitar One
D#|---------------------------------------------------------------------------|
A#|---------------------------------------------------------------------------|
F#|---------------------------------------------------------------------------|
C#|-2------2----7------7------------------------------------------------------|
G#|-2--22222----7--77777-11-111-----------------------------------------------|
C#|-2--22222----7--77777-11-111-----------------------------------------------|
                          ^ ones, not elevens.
Guitar Two
D#|---------------------------------------------------------------------------|
A#|---------------------------------------------------------------------------|
F#|---------------------------------------------------------------------------|
C#|----------------------------7----------------------------------------------|
G#|---------------------10-----6----------------------------------------------|
C#|-2225222222252222-777--7777------------------------------------------------|

3:13-End
Guitar One
D#|---------------------------------------------------------------------------|
A#|---------------------------------------------------------------------------|
F#|---------------------------------------------------------------------------|
C#|---------------------------------------------------------------------------|
G#|----------2----------------------------------------------------------------|
C#|-2-0-1--2---0-1-2----------------------------------------------------------|

Guitar Two
D#|---------------------------------------------------------------------------|
A#|---------------------------------------------------------------------------|
F#|---------4-----------------------------------------------------------------|
C#|-2-0-1-2---0-1-2-----------------------------------------------------------|
G#|---------------------------------------------------------------------------|
C#|---------------------------------------------------------------------------|


************************************

| /   slide up
| \   slide down
| h   hammer-on
| p   pull-off
| ~   vibrato
| +   harmonic
| x   Mute note
| b   Bend
| pb  Pre-bend
| br  Bend release
| pbr Pre-bend release
| brb Bend release bend

************************************
Tap to rate this tab
# A B C D E F G H I J K L M N O P Q R S T U V W X Y Z