Guitaretab - guitar tabs
Song name
# A B C D E F G H I J K L M N O P Q R S T U V W X Y Z

Our Last Night - Reason To Love Acoustic tab

Time for me to contribute to this amazing society! Might be a couple of errors
since i took it all by ear but it sounds alrite to me.

Capo on 4th and double drop d tuning, and everything is tabbed with the capo as 
the starting point.


Intro riff 2x

d|-------------------7/9-----------------------------------------------------|
B|-----------------------77-7--5-5-5-2-2-3-----------------------------------|
G|-----4---4/6-7/9-----------------------------------------------------------|
D|-------4---------7---------------------------------------------------------|
A|---------------------------------------------------------------------------|
E|---------------------------------------------------------------------------|

This is just to show the chords, you gotta make up the strum pattern yourself :)

Verse:

d|--------0----0-------------------------------------------------------------|
B|--------0----7----5--------------------------------------------------------|
G|---4----4----7----6--------------------------------------------------------|
D|---4----5----7----7--------------------------------------------------------|
A|---2----5----5----0--------------------------------------------------------|
E|--------3------------------------------------------------------------------|

Pre Chorus:
[ Tab from: http://www.guitaretab.com/o/our-last-night/365409.html ]
d|--0---0---0---0------------------------------------------------------------|
B|--2---0---0---x------------------------------------------------------------|
G|--2---4---4---6------------------------------------------------------------|
D|--2---4---5---7------------------------------------------------------------|
A|--0---2---5---7------------------------------------------------------------|
E|----------3---5------------------------------------------------------------|


Chorus:

d|--0---0---0---0-------------------------------------------------------------|
B|--0---7---5---0-------------------------------------------------------------|
G|--4---7---6---4-------------------------------------------------------------|
D|--4---7---7---5-------------------------------------------------------------|
A|--2---5---0---5-------------------------------------------------------------|
E|--2---5-------3-------------------------------------------------------------|


On the end of the second chorus he just changes the bass on the last chord down 
half a tone ( one fret)


Bridge:

d|---0----0----0-------------------------------------------------------------|
B|---0----0----x-------------------------------------------------------------|
G|---0----4----6-------------------------------------------------------------|
D|---2----4----7-------------------------------------------------------------|
A|---2----2----7-------------------------------------------------------------|
E|-------------5-------------------------------------------------------------|

Then at the end of the bridge:

d|---0---0--0---0------------------------------------------------------------|
B|---0---0--0---x------------------------------------------------------------|
G|---4---4--4---6------------------------------------------------------------|
D|---5---5--5---7------------------------------------------------------------|
A|---5---5--5---7------------------------------------------------------------|
E|---0---2--3---5------------------------------------------------------------|

Cheers
Related for Reason To Love Acoustic tab
Reason To Love Acoustic chords by Our Last Night