Song name
# A B C D E F G H I J K L M N O P Q R S T U V W X Y Z

Our Last Night - Reason To Love Acoustic tab

Let me know what you think!
I've been looking for tabs so I put a few together and made changes to it.

Tuning: DADGAd
Capo: 4th

Intro: (x2)

d|------------------7/9\7-----------2--2--2-------------------|
A|--2h5-----7/9------------9--9--9-----------4--4--4/5--5--5--|
G|------------------------------------------------------------|
D|-------4----------------------------------------------------|
A|---------------9--------------------------------------------|
D|------------------------------------------------------------|

I didn't put the strum pattern.

Verse:

d|--------0----0-------------------------------------------------------------|
B|--------0----7----5--------------------------------------------------------|
G|---4----4----7----6--------------------------------------------------------|
D|---4----5----7----7--------------------------------------------------------|
A|---2----5----5----0--------------------------------------------------------|
D|--------3------------------------------------------------------------------|

Pre Chorus:

d|--0---0---0---0------------------------------------------------------------|
B|--2---0---0---x------------------------------------------------------------|
G|--2---4---4---6------------------------------------------------------------|
D|--2---4---5---7------------------------------------------------------------|
A|--0---2---5---7------------------------------------------------------------|
D|----------3---5------------------------------------------------------------|

Chorus:

d|--0---0---0---0-------------------------------------------------------------|
B|--0---7---5---0-------------------------------------------------------------|
G|--4---7---6---4-------------------------------------------------------------|
D|--4---7---7---5-------------------------------------------------------------|
A|--2---5---0---5-------------------------------------------------------------|
D|--2---5-------3-------------------------------------------------------------|

On the end of the second chorus he makes the low D chord half a step lower.

Bridge:

d|---0----0----0-------------------------------------------------------------|
B|---0----0----x-------------------------------------------------------------|
G|---0----4----6-------------------------------------------------------------|
D|---2----4----7-------------------------------------------------------------|
A|---2----2----7-------------------------------------------------------------|
D|-------------5-------------------------------------------------------------|

Then at the end of the bridge:

d|---0---0---0---0-----------------------------------------------------------|
B|---0---0---0---x-----------------------------------------------------------|
G|---4---4---4---6-----------------------------------------------------------|
D|---5---5---5---7-----------------------------------------------------------|
A|---5---5---5---7-----------------------------------------------------------|
D|---0---2---3---5-----------------------------------------------------------|

Outro: (I think)

d|-------0---------0---------0---------0------|
A|---------0---------0---------0---------0----|
G|--------------------------------------------|
D|---5---------7---------2---------0-------0--|
A|-2---2-----5---5-----0---0-----0---0--------|
D|--------------------------------------------|
Tap to rate this tab
# A B C D E F G H I J K L M N O P Q R S T U V W X Y Z