Song name
# A B C D E F G H I J K L M N O P Q R S T U V W X Y Z

Our Last Night - Sunrise tab

----------------------------------------------------------------------------
                            Sunrise
                          Our Last Night
----------------------------------------------------------------------------

What a great way to show that Our Last Night can do more than just cover songs.
“Sunrise” is a beautiful piece with powerful instrumentals. I hope to see more great 
songs by
Our Last Night in the future. Enjoy!

Username: dkm817 (same on X box live)
Youtube Cover: http://www.youtube.com/watch?v=cZ45ul2xCx8
Email: guitardrums@rockfan.com

Guitar 1 Rhythmic (C G C F A D)
Guitar 2 Lead     (C G C F A D)
Guitar 3 Mixed    (C G C F A D)

NOTE: This was exported off of guitar pro.


Guitar 1

                                     H        E  E  E  E
D||-------|-------|-------|-------|--2--------2--0--------|
A||-------|-------|-------|-------|-----------------2--0--|
F||-------|-------|-------|-------|-----------------------|
C||-------|-------|-------|-------|-----------------------|
G||-------|-------|-------|-------|-----------------------|
C||-------|-------|-------|-------|-----------------------|


  H        E  E  Q       Q    Q    Q    Q       Q    H        Q
----------------------|------------0----L----|---------------------|
--2--------2--5--2----|--L-------------------|--0------------------|
----------------------|-----------------2----|-------1--------L----|
----------------------|-------2----L---------|---------------------|
----------------------|----------------------|---------------------|
----------------------|----------------------|---------------------|


  W                   W
-------------------|-------------------|-------------------|-------------------|
-------------------|-------------------|-------------------|-------------------|
--2----------------|--L----------------|-------------------|-------------------|
-------------------|-------------------|-------------------|-------------------|
-------------------|-------------------|-------------------|-------------------|
-------------------|-------------------|-------------------|-------------------|


(00:37)


  ^                    ^                   ^
  W                    W                   W
--0----------------|---9----------------|--5----------------|
--3----------------|--10----------------|--5----------------|
--2----------------|---9----------------|--6----------------|
--4----------------|--11----------------|--7----------------|
-------------------|--------------------|-------------------|
-------------------|--------------------|-------------------|


  ^                   ^                    ^
  W                   W                    W
--4----------------|--0----------------|---9----------------|
--5----------------|--3----------------|--10----------------|
--4----------------|--2----------------|---9----------------|
--6----------------|--4----------------|--11----------------|
-------------------|-------------------|--------------------|
-------------------|-------------------|--------------------|


  ^                   ^                   ^
  W                   W                   W                   W
--5----------------|--4----------------|--0----------------|--L----------------|
--5----------------|--5----------------|--3----------------|--L----------------|
--6----------------|--4----------------|--2----------------|--L----------------|
--7----------------|--6----------------|--4----------------|--L----------------|
-------------------|-------------------|-------------------|-------------------|
-------------------|-------------------|-------------------|-------------------|


   ^                    ^                    ^
   W                    W                    W
---9----------------|--------------------|--------------------|
--10----------------|--10----------------|--------------------|
--11----------------|--11----------------|---9----------------|
--------------------|--12----------------|--11----------------|
--------------------|--------------------|--12----------------|
--------------------|--------------------|--------------------|


   ^                    ^                    ^
   W                    W                    W
--------------------|---9----------------|--------------------|
---9----------------|--10----------------|--10----------------|
---9----------------|--11----------------|--11----------------|
--11----------------|--------------------|--12----------------|
--------------------|--------------------|--------------------|
--------------------|--------------------|--------------------|


   ^                    ^
   W                    W                   W
--------------------|--------------------|-------------------|
--------------------|---9----------------|--L----------------|
---9----------------|---9----------------|--L----------------|
--11----------------|--11----------------|--L----------------|
--12----------------|--------------------|-------------------|
--------------------|--------------------|-------------------|


  E  E  E  E  E  E  E  E     E  E  E  E  E  E  E  E
--------------------------|--------------------------|
--------------------------|--------------------------|
--------------------------|--------------------------|
--4--4--4--4--4--4--4--4--|--0--0--0--0--0--0--0--0--|
--4--4--4--4--4--4--4--4--|--0--0--0--0--0--0--0--0--|
--4--4--4--4--4--4--4--4--|--0--0--0--0--0--0--0--0--|


  E  E  E  E  E  E  E  E     E  E  E  E  E  E  E  E
--------------------------|--------------------------|
--------------------------|--------------------------|
--2--2--2--2--2--2--2--2--|--------------------------|
--2--2--2--2--2--2--2--2--|--2--2--2--2--2--2--2--2--|
--0--0--0--0--0--0--0--0--|--2--2--2--2--2--2--2--2--|
--------------------------|--2--2--2--2--2--2--2--2--|


  E  E  E  E  E  E  E  E     E  E  E  E  E  E  E  E
--------------------------|--------------------------|
--------------------------|--------------------------|
--------------------------|--------------------------|
--4--4--4--4--4--4--4--4--|--0--0--0--0--0--0--0--0--|
--4--4--4--4--4--4--4--4--|--0--0--0--0--0--0--0--0--|
--4--4--4--4--4--4--4--4--|--0--0--0--0--0--0--0--0--|


  E  E  E  E  E  E  E  E     E  E  E  E  E  E  E  E
--------------------------|--------------------------|-------|-------|-------|
--------------------------|--------------------------|-------|-------|-------|
--2--2--2--2--2--2--2--2--|--------------------------|-------|-------|-------|
--2--2--2--2--2--2--2--2--|--2--2--2--2--2--2--2--2--|-------|-------|-------|
--0--0--0--0--0--0--0--0--|--2--2--2--2--2--2--2--2--|-------|-------|-------|
--------------------------|--2--2--2--2--2--2--2--2--|-------|-------|-------|


(01:33)


                                          ^                   ^
                                          W                   W
-------|-------|-------|-------|-------|--0----------------|--0----------------|
-------|-------|-------|-------|-------|--3----------------|--2----------------|
-------|-------|-------|-------|-------|--2----------------|--2----------------|
-------|-------|-------|-------|-------|--0----------------|--2----------------|
-------|-------|-------|-------|-------|--0----------------|--0----------------|
-------|-------|-------|-------|-------|-------------------|-------------------|


  ^                   ^                   ^                   ^
  W                   W                   W                   W
--2----------------|--0----------------|--0----------------|--0----------------|
--2----------------|--0----------------|--3----------------|--2----------------|
--2----------------|--1----------------|--2----------------|--2----------------|
--4----------------|--2----------------|--0----------------|--2----------------|
--4----------------|--2----------------|--0----------------|--0----------------|
-------------------|-------------------|-------------------|-------------------|


  ^                   ^                   ^
  W                   W                   W                   W
--2----------------|--0----------------|--0----------------|--L----------------|
--2----------------|--0----------------|--3----------------|--L----------------|
--2----------------|--1----------------|--2----------------|--L----------------|
--4----------------|--2----------------|--0----------------|--L----------------|
--4----------------|--2----------------|--0----------------|--L----------------|
-------------------|-------------------|-------------------|-------------------|


  E  E  E  E  E  E  E  E     E  E  E  E  E  E  E  E
--------------------------|--------------------------|
--------------------------|--------------------------|
--------------------------|--------------------------|
--4--4--4--4--4--4--4--4--|--0--0--0--0--0--0--0--0--|
--4--4--4--4--4--4--4--4--|--0--0--0--0--0--0--0--0--|
--4--4--4--4--4--4--4--4--|--0--0--0--0--0--0--0--0--|


  E  E  E  E  E  E  E  E     E  E  E  E  E  E  E  E
--------------------------|--------------------------|
--------------------------|--------------------------|
--2--2--2--2--2--2--2--2--|--------------------------|
--2--2--2--2--2--2--2--2--|--2--2--2--2--2--2--2--2--|
--0--0--0--0--0--0--0--0--|--2--2--2--2--2--2--2--2--|
--------------------------|--2--2--2--2--2--2--2--2--|


  E  E  E  E  E  E  E  E     E  E  E  E  E  E  E  E
--------------------------|--------------------------|
--------------------------|--------------------------|
--------------------------|--------------------------|
--4--4--4--4--4--4--4--4--|--0--0--0--0--0--0--0--0--|
--4--4--4--4--4--4--4--4--|--0--0--0--0--0--0--0--0--|
--4--4--4--4--4--4--4--4--|--0--0--0--0--0--0--0--0--|


  E  E  E  E  E  E  E  E     E  E  E  E  E  E  E  E     E.  E.  H        E
--------------------------|--------------------------|----------------------|
--------------------------|--------------------------|----------------------|
--2--2--2--2--2--2--2--2--|--------------------------|----------------------|
--2--2--2--2--2--2--2--2--|--2--2--2--2--2--2--2--2--|--2---2---2--------L--|
--0--0--0--0--0--0--0--0--|--2--2--2--2--2--2--2--2--|--2---2---2--------L--|
--------------------------|--2--2--2--2--2--2--2--2--|--2---2---2--------L--|


  E.  E.  E  E  E  E  E     E.  E.  E  E  E  E  E     E.  E.  E  Q    E  E
-------------------------|-------------------------|------------------------|
-------------------------|-------------------------|------------------------|
-------------------x--x--|-------------------x--x--|--2---2---2--2----2--2--|
--4---4---4--4-----x--x--|--0---0---0--0-----x--x--|--2---2---2--2----2--2--|
--4---4---4--4-----x--x--|--0---0---0--0-----x--x--|--0---0---0--0----0--0--|
--4---4---4--4-----------|--0---0---0--0-----------|------------------------|


  E  E  E  E  E  E  E  E     E.  E.  E  E  E  E  E     E.  E.  E  E  E  E  E
--------------------------|-------------------------|-------------------------|
--------------------------|-------------------------|-------------------------|
--------------------------|--4---4---4--4-----x--x--|-------------------x--x--|
--2--2--2--2--2--2--2--2--|--4---4---4--4-----x--x--|--0---0---0--0-----x--x--|
--2--2--2--2--2--2--2--2--|--2---2---2--2-----x--x--|--0---0---0--0-----x--x--|
--2--2--2--2--2--2--2--2--|-------------------------|--0---0---0--0-----------|


  E.  E.  E  Q    E  E     E  E  E  E  E  E  E  E     E  E  E  E  E  E  E  E
------------------------|--------------------------|--------------------------|
------------------------|--------------------------|--------------------------|
------------------------|--------------------------|--------------------------|
--4---4---4--4----4--4--|--2--2--2--2--2--2--2--2--|--0--0--0--0--0-----------|
--4---4---4--4----4--4--|--2--2--2--2--2--2--2--2--|--0--0--0--0--0-----------|
--4---4---4--4----4--4--|--2--2--2--2--2--2--2--2--|--0--0--0--0--0-----------|


  E  E  E  E  E  E  E  E     E  E  E  E  E  E  E  E
--------------------------|--------------------------|
--------------------------|--------------------------|
--------------------------|--------------------------|
--------0--0--0--0--0-----|--------0--0--0-----------|
--------0--0--0--0--0-----|--------0--0--0-----------|
--------0--0--0--0--0-----|--------0--0--0-----------|


  E  E  E  E  E  E  E  E     E  E  E  E  E  E  E  E
--------------------------|--------------------------|
--------------------------|--------------------------|
--------------------------|--------------------------|
--------0--0--0--0--0--0--|--4--4--4--4--4-----------|
--------0--0--0--0--0--0--|--4--4--4--4--4-----------|
--------0--0--0--0--0--0--|--4--4--4--4--4-----------|


  E  E  E  E  E  E  E  E     E  E  E  E  E  E  E  E
--------------------------|--------------------------|
--------------------------|--------------------------|
--------------------------|--------------------------|
--------4--4--4--4--4-----|--------4--4--4-----------|
--------4--4--4--4--4-----|--------4--4--4-----------|
--------4--4--4--4--4-----|--------4--4--4-----------|


  E  E  E  E  E  E  E  E     E  E  E  E  E  E  E  E
--------------------------|--------------------------|
--------------------------|--------------------------|
--------------------------|--------------------------|
--------2--2--2--2--2--2--|--0--0--0--0--0-----------|
--------2--2--2--2--2--2--|--0--0--0--0--0-----------|
--------2--2--2--2--2--2--|--0--0--0--0--0-----------|


  E  E  E  E  E  E  E  E     E  E  E  E  E  E  E  E
--------------------------|--------------------------|
--------------------------|--------------------------|
--------------------------|--------------------------|
--------0--0--0--0--0-----|--------0--0--0-----------|
--------0--0--0--0--0-----|--------0--0--0-----------|
--------0--0--0--0--0-----|--------0--0--0-----------|


  E  E  E  E  E  E  E  E     E  E  E  E  E  E  E  E
--------------------------|--------------------------|
--------------------------|--------------------------|
--------------------------|--------------------------|
--------0--0--0--0--0--0--|--4--4--4--4--4-----------|
--------0--0--0--0--0--0--|--4--4--4--4--4-----------|
--------0--0--0--0--0--0--|--4--4--4--4--4-----------|


                                                  PM
  E  E  E  E  E  E  E  E     E  E  E  E  E  Q     E     W
--------------------------|--------------------------|-------------------|
--------------------------|--------------------------|-------------------|
--------------------------|--------------------------|-------------------|
--------4--4--4--4--4-----|--------4--4--4--L\----2--|--2----------------|
--------4--4--4--4--4-----|--------4--4--4--L\----2--|--2----------------|
--------4--4--4--4--4-----|--------4--4--4--L\----2--|--2----------------|


  E  E  E  E  E  E  E  E     E  E  E  E  E  E  E  E
--------------------------|--------------------------|
--------------------------|--------------------------|
--------------------------|--------------------------|
--4--4--4--4--4--4--4--4--|--0--0--0--0--0--0--0--0--|
--4--4--4--4--4--4--4--4--|--0--0--0--0--0--0--0--0--|
--4--4--4--4--4--4--4--4--|--0--0--0--0--0--0--0--0--|


  E  E  E  E  E  E  E  E     E  E  E  E  E  E  E  E
--------------------------|--------------------------|
--------------------------|--------------------------|
--2--2--2--2--2--2--2--2--|--------------------------|
--2--2--2--2--2--2--2--2--|--6--6--6--6--6-----------|
--0--0--0--0--0--0--0--0--|--2--2--2--2--2-----------|
--------------------------|--2--2--2--2--2-----------|


  E  E  E  E  E  E  E  E     E  E  E  E  E  E  E  E
--------------------------|--------------------------|
--------------------------|--------------------------|
--------------------------|--------------------------|
--4--4--4--4--4--4--4--4--|--0--0--0--0--0--0--0--0--|
--4--4--4--4--4--4--4--4--|--0--0--0--0--0--0--0--0--|
--4--4--4--4--4--4--4--4--|--0--0--0--0--0--0--0--0--|


  E  E  E  E  E  E  E  E     E  E  E  E  E  E  E  E     E.  E.  H        E
--------------------------|--------------------------|----------------------|
--------------------------|--------------------------|----------------------|
--2--2--2--2--2--2--2--2--|--------------------------|----------------------|
--2--2--2--2--2--2--2--2--|--2--2--2--2--2--2--2--2--|--2---2---2--------L--|
--0--0--0--0--0--0--0--0--|--2--2--2--2--2--2--2--2--|--2---2---2--------L--|
--------------------------|--2--2--2--2--2--2--2--2--|--2---2---2--------L--|


  E.  E.  E  E  E  E  E     E.  E.  E  E  E  E  E     E.  E.  E  Q    E  E
-------------------------|-------------------------|------------------------|
-------------------------|-------------------------|------------------------|
-------------------x--x--|-------------------x--x--|--2---2---2--2----2--2--|
--4---4---4--4-----x--x--|--0---0---0--0-----x--x--|--2---2---2--2----2--2--|
--4---4---4--4-----x--x--|--0---0---0--0-----x--x--|--0---0---0--0----0--0--|
--4---4---4--4-----------|--0---0---0--0-----------|------------------------|


  E  E  E  E  E  E  E  E     E.  E.  E  E  E  E  E     E.  E.  E  E  E  E  E
--------------------------|-------------------------|-------------------------|
--------------------------|-------------------------|-------------------------|
--------------------------|--4---4---4--4-----x--x--|-------------------x--x--|
--2--2--2--2--2--2--2--2--|--4---4---4--4-----x--x--|--0---0---0--0-----x--x--|
--2--2--2--2--2--2--2--2--|--2---2---2--2-----x--x--|--0---0---0--0-----x--x--|
--2--2--2--2--2--2--2--2--|-------------------------|--0---0---0--0-----------|


  E.  E.  E  Q    E  E     E  E  E  E  E  E  E  E     E  E  E  E  E  E  E  E
------------------------|--------------------------|--------------------------|
------------------------|--------------------------|--------------------------|
------------------------|--------------------------|--4--4--4--4--4--4--4--4--|
--4---4---4--4----4--4--|--2--2--2--2--2--2--2--2--|--4--4--4--4--4--4--4--4--|
--4---4---4--4----4--4--|--2--2--2--2--2--2--2--2--|--2--2--2--2--2--2--2--2--|
--4---4---4--4----4--4--|--2--2--2--2--2--2--2--2--|--------------------------|


  E  E  E  E  E  E  E  E     E  E  E  E  E  E  E  E
--------------------------|--------------------------|
--------------------------|--------------------------|
--------------------------|--------------------------|
--0--0--0--0--0--0--0--0--|--4--4--4--4--4--4--4--4--|
--0--0--0--0--0--0--0--0--|--4--4--4--4--4--4--4--4--|
--0--0--0--0--0--0--0--0--|--4--4--4--4--4--4--4--4--|


  E  E  E  E  E  E  E  E     E  E  E  E  E  E  E  E
--------------------------|--------------------------|
--------------------------|--------------------------|
--------------------------|--4--4--4--4--4--4--4--4--|
--2--2--2--2--2--2--2--2--|--4--4--4--4--4--4--4--4--|
--2--2--2--2--2--2--2--2--|--2--2--2--2--2--2--2--2--|
--2--2--2--2--2--2--2--2--|--------------------------|


  E  E  E  E  E  E  E  E     E  E  E  E  E  E  E  E
--------------------------|--------------------------|
--------------------------|--------------------------|
--------------------------|--------------------------|
--0--0--0--0--0--0--0--0--|--4--4--4--4--4--4--4--4--|
--0--0--0--0--0--0--0--0--|--4--4--4--4--4--4--4--4--|
--0--0--0--0--0--0--0--0--|--4--4--4--4--4--4--4--4--|


  E  E  E  E  E  E  E  E
--------------------------|-----|-----|-----|-----|-----|-----|-----|-----|
--------------------------|-----|-----|-----|-----|-----|-----|-----|-----|
--------------------------|-----|-----|-----|-----|-----|-----|-----|-----|
--2--2--2--2--2--2--2--2--|-----|-----|-----|-----|-----|-----|-----|-----|
--2--2--2--2--2--2--2--2--|-----|-----|-----|-----|-----|-----|-----|-----|
--2--2--2--2--2--2--2--2--|-----|-----|-----|-----|-----|-----|-----|-----|


Guitar 2


     Q    Q    Q    Q       Q    Q    Q    Q       Q    Q    Q    Q
D||----------------------|----------------------|----------------------|
A||----------------------|----------------------|----------------------|
F||-------6----L----6----|-------2----L----2----|----------------------|
C||--4----L----4----L----|--0----L----0----L----|-------2----L----2----|
G||----------------------|----------------------|--0----L----0----L----|
C||----------------------|----------------------|----------------------|


  Q    Q    Q    Q       Q    Q    Q    Q       Q    Q    Q    Q
----------------------|----------------------|----------------------|
----------------------|----------------------|----------------------|
----------------------|-------6----L----6----|-------2----L----2----|
-------9----L----9----|--4----L----4----L----|--0----L----0----L----|
--7----L----7----L----|----------------------|----------------------|
----------------------|----------------------|----------------------|


  Q    Q    Q    Q       Q    Q    Q    Q       Q    Q    Q    Q
----------------------|----------------------|----------------------|
----------------------|----------------------|----------------------|
----------------------|----------------------|-------6----L----6----|
-------2----L----2----|-------9----L----9----|--4----L----4----L----|
--0----L----0----L----|--7----L----7----L----|----------------------|
----------------------|----------------------|----------------------|


  Q    Q    Q    Q       Q    Q    Q    Q       Q    Q    Q    Q
----------------------|----------------------|----------------------|
----------------------|----------------------|----------------------|
-------2----L----2----|----------------------|----------------------|
--0----L----0----L----|-------2----L----2----|-------9----L----9----|
----------------------|--0----L----0----L----|--7----L----7----L----|
----------------------|----------------------|----------------------|


  Q    Q    Q    Q       Q    Q    Q    Q       Q    Q    Q    Q
----------------------|----------------------|----------------------|
----------------------|----------------------|----------------------|
-------6----L----6----|-------2----L----2----|----------------------|
--4----L----4----L----|--0----L----0----L----|-------2----L----2----|
----------------------|----------------------|--0----L----0----L----|
----------------------|----------------------|----------------------|


  Q    Q    Q    Q       Q    Q    Q    Q       Q    Q    Q    Q
----------------------|----------------------|----------------------|
----------------------|----------------------|----------------------|
----------------------|-------6----L----6----|-------2----L----2----|
-------9----L----9----|--4----L----4----L----|--0----L----0----L----|
--7----L----7----L----|----------------------|----------------------|
----------------------|----------------------|----------------------|


  Q    Q    Q    Q       Q    Q    Q    Q       Q    Q    Q    Q
----------------------|----------------------|----------------------|
----------------------|----------------------|----------------------|
----------------------|----------------------|-------6----L----6----|
-------2----L----2----|-------9----L----9----|--4----L----4----L----|
--0----L----0----L----|--7----L----7----L----|----------------------|
----------------------|----------------------|----------------------|


  Q    Q    Q    Q       Q    Q    Q    Q       Q    Q    Q    Q
----------------------|----------------------|----------------------|
----------------------|----------------------|----------------------|
-------2----L----2----|----------------------|----------------------|
--0----L----0----L----|-------2----L----2----|-------9----L----9----|
----------------------|--0----L----0----L----|--7----L----7----L----|
----------------------|----------------------|----------------------|


  Q    Q    Q    Q       Q    Q    Q    Q       Q    Q    Q    Q
----------------------|----------------------|----------------------|
----------------------|--2----L----2----L----|----------------------|
--2----L----2----L----|--2----L----2----L----|--2----L----2----L----|
--2----L----2----L----|----------------------|--4----L----4----L----|
-------5----L----5----|-------0----L----0----|-------4----L----4----|
----------------------|----------------------|----------------------|


  Q    Q    Q    Q       Q    Q    Q    Q       Q    Q    Q    Q
----------------------|----------------------|----------------------|
----------------------|----------------------|--2----L----2----L----|
--1----L----1----L----|--2----L----2----L----|--2----L----2----L----|
--2----L----2----L----|--2----L----2----L----|----------------------|
-------2----L----2----|-------5----L----5----|-------0----L----0----|
----------------------|----------------------|----------------------|


  Q    Q    Q    Q       Q    Q    Q    Q       Q    Q    Q    Q
----------------------|----------------------|----------------------|
----------------------|----------------------|----------------------|
--2----L----2----L----|--1----L----1----L----|--2----L----2----L----|
--4----L----4----L----|--2----L----2----L----|--2----L----2----L----|
-------4----L----4----|-------2----L----2----|-------5----L----5----|
----------------------|----------------------|----------------------|


  Q    Q    Q    Q
----------------------|-----|-----|-------|-------|-------|-------|-------|
----------------------|-----|-----|-------|-------|-------|-------|-------|
--2----L----1----L----|-----|-----|-------|-------|-------|-------|-------|
--2----L----2----L----|-----|-----|-------|-------|-------|-------|-------|
-------5----2----L----|-----|-----|-------|-------|-------|-------|-------|
----------------------|-----|-----|-------|-------|-------|-------|-------|


(01:07)


                   E   E   E   E   E   E   E   E
-------|-------|----------------------------------|
-------|-------|--14--14--14--14--14--14--14--12--|
-------|-------|----------------------------------|
-------|-------|--11--11--11--11--11--11--11---9--|
-------|-------|----------------------------------|
-------|-------|----------------------------------|


   E   E   E   E   E   E   E   E      E   E   E   E   E   E   E   E
----------------------------------|----------------------------------|
--14--14--14--14--14--14--15--17--|--14--14--14--14--14--14--15--14--|
----------------------------------|----------------------------------|
--11--11--11--11--11--11--12--14--|--11--11--11--11--11--11--12--11--|
----------------------------------|----------------------------------|
----------------------------------|----------------------------------|


   E   E   E   E   E   E   E   E      E   E   E   E   E   E   E   E
----------------------------------|----------------------------------|
--12--12--12--12--12--12--12--12--|--15--15--15--15--15--15--15--17--|
----------------------------------|----------------------------------|
---9---9---9---9---9---9---9---9--|--12--12--12--12--12--12--12--14--|
----------------------------------|----------------------------------|
----------------------------------|----------------------------------|


   E   E   E   E   E   E   E   E      E   E   E   E   E   E   E   E
----------------------------------|----------------------------------|
--14--14--14--14--14--14--14--12--|--14--14--14--14--14--14--14--15--|
----------------------------------|----------------------------------|
--11--11--11--11--11--11--11---9--|--11--11--11--11--11--11--11--12--|
----------------------------------|----------------------------------|
----------------------------------|----------------------------------|


   E   E   E   E   E   E   E   E     Q    Q    Q    Q
----------------------------------|----------------------|
--12--12--12--12--12--12--12--12--|----------------------|
----------------------------------|-------6----L----6----|
---9---9---9---9---9---9---9---9--|--4----L----4----L----|
----------------------------------|----------------------|
----------------------------------|----------------------|


  Q    Q    Q    Q       Q    Q    Q    Q       Q    Q    Q    Q
----------------------|----------------------|----------------------|
----------------------|----------------------|----------------------|
-------2----L----2----|----------------------|----------------------|
--0----L----0----L----|-------2----L----2----|-------9----L----9----|
----------------------|--0----L----0----L----|--7----L----7----L----|
----------------------|----------------------|----------------------|


  Q    Q    Q    Q       Q    Q    Q    Q       Q    Q    Q    Q
----------------------|----------------------|----------------------|
----------------------|----------------------|----------------------|
-------6----L----6----|-------2----L----2----|----------------------|
--4----L----4----L----|--0----L----0----L----|-------2----L----2----|
----------------------|----------------------|--0----L----0----L----|
----------------------|----------------------|----------------------|


  Q    Q    Q    Q       Q    Q    Q    Q       Q    Q    Q    Q
----------------------|----------------------|----------------------|
----------------------|----------------------|--2----L----2----L----|
----------------------|--2----L----2----L----|--2----L----2----L----|
-------9----L----9----|--2----L----2----L----|----------------------|
--7----L----7----L----|-------5----L----5----|-------0----L----0----|
----------------------|----------------------|----------------------|


  Q    Q    Q    Q       Q    Q    Q    Q       Q    Q    Q    Q
----------------------|----------------------|----------------------|
----------------------|----------------------|----------------------|
--2----L----2----L----|--1----L----1----L----|--2----L----2----L----|
--4----L----4----L----|--2----L----2----L----|--2----L----2----L----|
-------4----L----4----|-------2----L----2----|-------5----L----5----|
----------------------|----------------------|----------------------|


  Q    Q    Q    Q       Q    Q    Q    Q       Q    Q    Q    Q
----------------------|----------------------|----------------------|
--2----L----2----L----|----------------------|----------------------|
--2----L----2----L----|--2----L----2----L----|--1----L----1----L----|
----------------------|--4----L----4----L----|--2----L----2----L----|
-------0----L----0----|-------4----L----4----|-------2----L----2----|
----------------------|----------------------|----------------------|


  Q    Q    Q    Q       Q    Q    Q    Q
----------------------|----------------------|
----------------------|----------------------|
--2----L----2----L----|--2----L----1----L----|
--2----L----2----L----|--2----L----2----L----|
-------5----L----5----|-------5----2----L----|
----------------------|----------------------|


   E   E   E   E   E   E   E   E      E   E   E   E   E   E   E   E
----------------------------------|----------------------------------|
--14--14--14--14--14--14--14--14--|----------------------------------|
----------------------------------|--11--11--11--11--11--11--11--11--|
--11--11--11--11--11--11--11--11--|----------------------------------|
----------------------------------|---9---9---9---9---9---9---9---9--|
----------------------------------|----------------------------------|


   E   E   E   E   E   E   E   E      E   E   E   E   E   E   E   E
----------------------------------|----------------------------------|
--14--14--14--14--14--14--14--14--|----------------------------------|
----------------------------------|--13--13--13--13--13--13--13--13--|
--11--11--11--11--11--11--11--11--|----------------------------------|
----------------------------------|--11--11--11--11--11--11--11--11--|
----------------------------------|----------------------------------|


   E   E   E   E   E   E   E   E     E  E  E  E  E  E  E  E
----------------------------------|--------------------------|
--14--14--14--14--14--14--14--14--|--------------------------|
----------------------------------|--7--7--7--7--7--7--7--7--|
--11--11--11--11--11--11--11--11--|--------------------------|
----------------------------------|--5--5--5--5--5--5--5--5--|
----------------------------------|--------------------------|


  E  E  E  E  E  E  E  E     E  E  E  E  E  E  E  E     E.  E.   H        E
--------------------------|--------------------------|-----------------------|
--------------------------|--------------------------|-----------------------|
--6--6--6--6--6--6--6--6--|--9--9--9--9--9--9--9--9--|--9-----------------L--|
--------------------------|--------------------------|------9-------------L--|
--4--4--4--4--4--4--4--4--|--7--7--7--7--7--7--7--7--|----------11--------L--|
--------------------------|--------------------------|-----------------------|


   E   E   E   E   E   E   E   E      E   E   E   E   E   E   E   E
----------------------------------|----------------------------------|
--14--14--14--14--14--14--14--12--|--14--14--14--14--14--14--15--17--|
----------------------------------|----------------------------------|
--11--11--11--11--11--11--11---9--|--11--11--11--11--11--11--12--14--|
----------------------------------|----------------------------------|
----------------------------------|----------------------------------|


   E   E   E   E   E   E   E   E      E   E   E   E   E   E   E   E
----------------------------------|----------------------------------|
--14--14--14--14--14--14--15--14--|--12--12--12--12--12--12--12--12--|
----------------------------------|----------------------------------|
--11--11--11--11--11--11--12--11--|---9---9---9---9---9---9---9---9--|
----------------------------------|----------------------------------|
----------------------------------|----------------------------------|


   E   E   E   E   E   E   E   E      E   E   E   E   E   E   E   E
----------------------------------|----------------------------------|
--15--15--15--15--15--15--15--17--|--14--14--14--14--14--14--14--12--|
----------------------------------|----------------------------------|
--12--12--12--12--12--12--12--14--|--11--11--11--11--11--11--11---9--|
----------------------------------|----------------------------------|
----------------------------------|----------------------------------|


   E   E   E   E   E   E   E   E      E   E   E   E   E   E   E   E
----------------------------------|----------------------------------|
--14--14--14--14--14--14--14--15--|--12--12--12--12--12--12--12--12--|
----------------------------------|----------------------------------|
--11--11--11--11--11--11--11--12--|---9---9---9---9---9---9---9---9--|
----------------------------------|----------------------------------|
----------------------------------|----------------------------------|


   E   E   E   E  E  E  E  E     E   E   E   E   E  E  E  E
------------------------------|------------------------------|
------------------------------|------------------------------|
------------------------------|------------------------------|
--11--11---L---L--7--7--7--7--|--7---L---L---L---L--7--7--7--|
----------11--11--L--L--L-----|-----11--11--11--11--L--L--L--|
------------------------------|------------------------------|


  E  E  E  E  E  E  E  E     E   E   E   E   E  E  E  E
--------------------------|------------------------------|
--------------------------|------------------------------|
--------------------------|------------------------------|
--7--7--7--7--7--7--7--7--|--7---L---L---L---L--7--7--7--|
--------------------------|-----11--11--11--11--L--L--L--|
--------------------------|------------------------------|


   E   E   E   E  E  E  E  E     E   E   E   E   E  E  E  E
------------------------------|------------------------------|
------------------------------|------------------------------|
------------------------------|------------------------------|
--11--11---L---L--7--7--7--7--|--7---L---L---L---L--7--7--7--|
----------11--11--L--L--L-----|-----11--11--11--11--L--L--L--|
------------------------------|------------------------------|


  E  E  E  E  E  E  E  E     E   E   E   E   E  E  E  E
--------------------------|------------------------------|
--------------------------|------------------------------|
--------------------------|------------------------------|
--7--7--7--7--7--7--7--7--|--7---L---L---L---L--7--7--7--|
--------------------------|-----11--11--11--11--L--L--L--|
--------------------------|------------------------------|


   E   E   E   E  E  E  E  E     E   E   E   E   E  E  E  E
------------------------------|------------------------------|
------------------------------|------------------------------|
------------------------------|------------------------------|
--11--11---L---L--7--7--7--7--|--7---L---L---L---L--7--7--7--|
----------11--11--L--L--L-----|-----11--11--11--11--L--L--L--|
------------------------------|------------------------------|


  E  E  E  E  E  E  E  E     E   E   E   E   E  E  E  E
--------------------------|------------------------------|
--------------------------|------------------------------|
--------------------------|------------------------------|
--7--7--7--7--7--7--7--7--|--7---L---L---L---L--7--7--7--|
--------------------------|-----11--11--11--11--L--L--L--|
--------------------------|------------------------------|


   E   E   E   E  E  E  E  E     E   E   E   E   E  E  E  E
------------------------------|------------------------------|
------------------------------|------------------------------|
------------------------------|------------------------------|
--11--11---L---L--7--7--7--7--|--7---L---L---L---L--7--7--7--|
----------11--11--L--L--L-----|-----11--11--11--11--L--L--L--|
------------------------------|------------------------------|


  E  E  E  E  E  E  E  E     E   E   E   E   E  E  E  E
--------------------------|------------------------------|-----|-----|-----|
--------------------------|------------------------------|-----|-----|-----|
--------------------------|------------------------------|-----|-----|-----|
--7--7--7--7--7--7--7--7--|--7---L---L---L---L--7--7--7--|-----|-----|-----|
--------------------------|-----11--11--11--11--L--L--L--|-----|-----|-----|
--------------------------|------------------------------|-----|-----|-----|


         E   E   E   E   E   E   E   E     E  E  E  E  E  E  E  E
-----|----------------------------------|--------------------------|
-----|--14--14--14--14--14--14--14--14--|--------------------------|
-----|----------------------------------|--7--7--7--7--7--7--7--7--|
-----|--11--11--11--11--11--11--11--11--|--------------------------|
-----|----------------------------------|--5--5--5--5--5--5--5--5--|
-----|----------------------------------|--------------------------|


  E  E  E  E  E  E  E  E     E  E  E  E  E  E  E  E     E.  E.   H        E
--------------------------|--------------------------|-----------------------|
--------------------------|--------------------------|-----------------------|
--6--6--6--6--6--6--6--6--|--9--9--9--9--9--9--9--9--|--9-----------------L--|
--------------------------|--------------------------|------9-------------L--|
--4--4--4--4--4--4--4--4--|--7--7--7--7--7--7--7--7--|----------11--------L--|
--------------------------|--------------------------|-----------------------|


   E   E   E   E   E   E   E   E      E   E   E   E   E   E   E   E
----------------------------------|----------------------------------|
--14--14--14--14--14--14--14--12--|--14--14--14--14--14--14--15--17--|
----------------------------------|----------------------------------|
--11--11--11--11--11--11--11---9--|--11--11--11--11--11--11--12--14--|
----------------------------------|----------------------------------|
----------------------------------|----------------------------------|


   E   E   E   E   E   E   E   E      E   E   E   E   E   E   E   E
----------------------------------|----------------------------------|
--14--14--14--14--14--14--15--14--|--12--12--12--12--12--12--12--12--|
----------------------------------|----------------------------------|
--11--11--11--11--11--11--12--11--|---9---9---9---9---9---9---9---9--|
----------------------------------|----------------------------------|
----------------------------------|----------------------------------|


   E   E   E   E   E   E   E   E      E   E   E   E   E   E   E   E
----------------------------------|----------------------------------|
--15--15--15--15--15--15--15--17--|--14--14--14--14--14--14--14--12--|
----------------------------------|----------------------------------|
--12--12--12--12--12--12--12--14--|--11--11--11--11--11--11--11---9--|
----------------------------------|----------------------------------|
----------------------------------|----------------------------------|


   E   E   E   E   E   E   E   E      E   E   E   E   E   E   E   E
----------------------------------|----------------------------------|
--14--14--14--14--14--14--14--15--|--12--12--12--12--12--12--12--12--|
----------------------------------|----------------------------------|
--11--11--11--11--11--11--11--12--|---9---9---9---9---9---9---9---9--|
----------------------------------|----------------------------------|
----------------------------------|----------------------------------|


   E   E   E   E   E   E   E   E      E   E   E   E   E   E   E   E
----------------------------------|----------------------------------|
--15--15--15--15--15--15--15--15--|--14--14--14--14--14--14--14--14--|
----------------------------------|----------------------------------|
--12--12--12--12--12--12--12--12--|--11--11--11--11--11--11--11--11--|
----------------------------------|----------------------------------|
----------------------------------|----------------------------------|


   E   E   E   E   E   E   E   E      E   E   E   E   E   E   E   E
----------------------------------|----------------------------------|
--14--14--14--14--14--14--14--14--|--12--12--12--12--12--12--12--12--|
----------------------------------|----------------------------------|
--11--11--11--11--11--11--11--11--|---9---9---9---9---9---9---9---9--|
----------------------------------|----------------------------------|
----------------------------------|----------------------------------|


   E   E   E   E   E   E   E   E      E   E   E   E   E   E   E   E
----------------------------------|----------------------------------|
--15--15--15--15--15--15--15--15--|--14--14--14--14--14--14--14--14--|
----------------------------------|----------------------------------|
--12--12--12--12--12--12--12--12--|--11--11--11--11--11--11--11--11--|
----------------------------------|----------------------------------|
----------------------------------|----------------------------------|


   E   E   E   E   E   E   E   E      E   E   E   E   E   E   E   E
----------------------------------|----------------------------------|
--14--14--14--14--14--14--14--14--|--12--12--12--12--12--12--12--12--|
----------------------------------|----------------------------------|
--11--11--11--11--11--11--11--11--|---9---9---9---9---9---9---9---9--|
----------------------------------|----------------------------------|
----------------------------------|----------------------------------|


  Q    Q    Q    Q       Q    Q    Q    Q       Q    Q    Q    Q
----------------------|----------------------|----------------------|
----------------------|--2----L----2----L----|----------------------|
--2----L----2----L----|--2----L----2----L----|--2----L----2----L----|
--2----L----2----L----|----------------------|--4----L----4----L----|
-------5----L----5----|-------0----L----0----|-------4----L----4----|
----------------------|----------------------|----------------------|


  Q    Q    Q    Q       Q    Q    Q    Q       Q    Q    Q    Q
----------------------|----------------------|----------------------|
----------------------|----------------------|--2----L----2----L----|
--1----L----1----L----|--2----L----2----L----|--2----L----2----L----|
--2----L----2----L----|--2----L----2----L----|----------------------|
-------2----L----2----|-------5----L----5----|-------0----L----0----|
----------------------|----------------------|----------------------|


  Q    Q    Q    Q       Q    Q    Q    Q       Q    Q    Q    Q
----------------------|----------------------|----------------------|
----------------------|----------------------|----------------------|
--2----L----2----L----|--1----L----1----L----|--2----L----2----L----|
--4----L----4----L----|--2----L----2----L----|--2----L----2----L----|
-------4----L----4----|-------2----L----2----|-------5----L----5----|
----------------------|----------------------|----------------------|


  Q    Q    Q    Q       Q    Q    Q    Q       Q    Q    Q    Q
----------------------|----------------------|----------------------|
--2----L----2----L----|----------------------|----------------------|
--2----L----2----L----|--2----L----2----L----|--1----L----1----L----|
----------------------|--4----L----4----L----|--2----L----2----L----|
-------0----L----0----|-------4----L----4----|-------2----L----2----|
----------------------|----------------------|----------------------|


  Q    Q    Q    Q       Q    Q    Q    Q       Q    Q    Q    Q
----------------------|----------------------|----------------------|
----------------------|--2----L----2----L----|----------------------|
--2----L----2----L----|--2----L----2----L----|--2----L----2----L----|
--2----L----2----L----|----------------------|--4----L----4----L----|
-------5----L----5----|-------0----L----0----|-------4----L----4----|
----------------------|----------------------|----------------------|


  Q    Q    Q    Q
----------------------||
----------------------||
--1----L----1----L----||
--2----L----2----L----||
-------2----L----2----||
----------------------||


Guitar 3


      H         E   E   E   E      H         E   E   Q
D||--14--------14--12----------|--------------------------|
A||--------------------14--12--|--14--------14--17--14----|
F||----------------------------|--------------------------|
C||----------------------------|--------------------------|
G||----------------------------|--------------------------|
C||----------------------------|--------------------------|


  Q     Q     Q     Q        Q     Q     Q     Q
-------------12-----L----|--12-----L----12-----L----|
--L----------------------|--12-----L----12-----L----|
-------14-----L----14----|---L----13-----L----13----|
-------------------------|--------------------------|
-------------------------|--------------------------|
-------------------------|--------------------------|


   H         E   E   E   E      H         E   E   Q
--14--------14--12----------|--------------------------|
--------------------14--12--|--14--------14--17--14----|
----------------------------|--------------------------|
----------------------------|--------------------------|
----------------------------|--------------------------|
----------------------------|--------------------------|


  Q     Q     Q     Q        Q     Q     Q     Q        Q     Q     Q     Q
-------------12-----L----|--12-----L----12-----L----|---9-----L-----9-----L----|
--L----------------------|--12-----L----12-----L----|--10-----L----10-----L----|
-------14-----L----14----|---L----13----------13----|--------11-----L----11----|
-------------------------|--------------------------|--------------------------|
-------------------------|--------------------------|--------------------------|
-------------------------|--------------------------|--------------------------|


   Q     Q     Q     Q        Q     Q     Q     Q       Q    Q    Q    Q
--------------------------|--------------------------|--7----L----7----L----|
--10-----L----10-----L----|--------------------------|--9----L----9----L----|
--11-----L----11-----L----|---9-----L-----9-----L----|-------9----L----9----|
--------12-----L----12----|--11-----L----11-----L----|----------------------|
--------------------------|--------12-----L----12----|----------------------|
--------------------------|--------------------------|----------------------|


   Q     Q     Q     Q        Q     Q     Q     Q
---9-----L-----9-----L----|--------------------------|
--10-----L----10-----L----|--10-----L----10-----L----|
--------11-----L----11----|--11-----L----11-----L----|
--------------------------|--------12-----L----12----|
--------------------------|--------------------------|
--------------------------|--------------------------|


   Q     Q     Q     Q       Q    Q    Q    Q        Q     Q     Q     Q
--------------------------|--7----L----7----L----|---9-----L-----9-----L----|
--------------------------|--9----L----9----L----|--10-----L----10-----L----|
---9-----L-----9-----L----|-------9----L----9----|--------11-----L----11----|
--11-----L----11-----L----|----------------------|--------------------------|
--------12-----L----12----|----------------------|--------------------------|
--------------------------|----------------------|--------------------------|


   Q     Q     Q     Q        Q     Q     Q     Q       Q    Q    Q    Q
--------------------------|--------------------------|--7----L----7----L----|
--10-----L----10-----L----|--------------------------|--9----L----9----L----|
--11-----L----11-----L----|---9-----L-----9-----L----|-------9----L----9----|
--------12-----L----12----|--11-----L----11-----L----|----------------------|
--------------------------|--------12-----L----12----|----------------------|
--------------------------|--------------------------|----------------------|


   Q     Q     Q     Q        Q     Q     Q     Q
---9-----L-----9-----L----|--------------------------|
--10-----L----10-----L----|--10-----L----10-----L----|
--------11-----L----11----|--11-----L----11-----L----|
--------------------------|--------12-----L----12----|
--------------------------|--------------------------|
--------------------------|--------------------------|


   Q     Q     Q     Q       Q    Q    Q    Q        Q     Q     Q     Q
--------------------------|--7----L----7----L----|--------------------------|
--------------------------|--9----L----9----L----|--10-----L----10-----L----|
---9-----L-----9-----L----|-------9----L----9----|--11-----L----11-----L----|
--11-----L----11-----L----|----------------------|--------12-----L----12----|
--------12-----L----12----|----------------------|--------------------------|
--------------------------|----------------------|--------------------------|


   Q     Q     Q     Q        Q     Q     Q     Q       Q    Q    Q    Q
--------------------------|---9-----L-----9-----L----|--7----L----7----L----|
--------------------------|--10-----L----10-----L----|--9----L----9----L----|
---9-----L-----9-----L----|--------11-----L----11----|-------9----L----9----|
--11-----L----11-----L----|--------------------------|----------------------|
--------12-----L----12----|--------------------------|----------------------|
--------------------------|--------------------------|----------------------|


   Q     Q     Q     Q        Q     Q     Q     Q
--------------------------|--------------------------|
--10-----L----10-----L----|--------------------------|
--11-----L----11-----L----|---9-----L-----9-----L----|
--------12-----L----12----|--11-----L----11-----L----|
--------------------------|--------12-----L----12----|
--------------------------|--------------------------|


   Q     Q     Q     Q       Q    Q    Q    Q        W
---9-----L-----9-----L----|--7----L----7----L----|---9----------------|
--10-----L----10-----L----|--9----L----9----L----|--10----------------|
--------11-----L----11----|-------9----L----9----|--11----------------|
--------------------------|----------------------|--------------------|
--------------------------|----------------------|--------------------|
--------------------------|----------------------|--------------------|


(01:20)


   H         E   E   E   E      H         E   E   Q
--14--------14--12----------|--------------------------|
--------------------14--12--|--14--------14--17--14----|
----------------------------|--------------------------|
----------------------------|--------------------------|
----------------------------|--------------------------|
----------------------------|--------------------------|


  Q     Q     Q     Q        Q     Q     Q     Q
-------------12-----L----|--12-----L----12-----L----|
--L----------------------|--12-----L----12-----L----|
-------14-----L----14----|---L----13-----L----13----|
-------------------------|--------------------------|
-------------------------|--------------------------|
-------------------------|--------------------------|


   H         E   E   E   E      Q    E   E   E   E   Q
--14--------14--12----------|-----------------------------|
--------------------14--12--|--14----L------14--17--14----|
----------------------------|-----------14----------------|
----------------------------|-----------------------------|
----------------------------|-----------------------------|
----------------------------|-----------------------------|


  Q     Q     Q     Q        Q     Q     Q     Q        Q     Q     Q     Q
-------------12-----L----|--12-----L----12-----L----|--------------------------|
--L----------------------|--12-----L----12-----L----|--10-----L----10-----L----|
-------14-----L----14----|---L----13----------13----|--11-----L----11-----L----|
-------------------------|--------------------------|--------12-----L----12----|
-------------------------|--------------------------|--------------------------|
-------------------------|--------------------------|--------------------------|


   Q     Q     Q     Q        Q     Q     Q     Q       Q    Q    Q    Q
--------------------------|---9-----L-----9-----L----|--7----L----7----L----|
--------------------------|--10-----L----10-----L----|--9----L----9----L----|
---9-----L-----9-----L----|--------11-----L----11----|-------9----L----9----|
--11-----L----11-----L----|--------------------------|----------------------|
--------12-----L----12----|--------------------------|----------------------|
--------------------------|--------------------------|----------------------|


   Q     Q     Q     Q        Q     Q     Q     Q
--------------------------|--------------------------|
--10-----L----10-----L----|--------------------------|
--11-----L----11-----L----|---9-----L-----9-----L----|
--------12-----L----12----|--11-----L----11-----L----|
--------------------------|--------12-----L----12----|
--------------------------|--------------------------|


   Q     Q     Q     Q       Q    Q    Q    Q        W
---9-----L-----9-----L----|--7----L----7----L----|---9----------------|
--10-----L----10-----L----|--9----L----9----L----|--10----------------|
--------11-----L----11----|-------9----L----9----|--11----------------|
--------------------------|----------------------|--------------------|
--------------------------|----------------------|--------------------|
--------------------------|----------------------|--------------------|


Duration Legend
---------------
W - whole
H - half
Q - quarter
E - 8th
S - 16th
T - 32nd
X - 64th
. - note dotted
|-n-|  - n-tuplets


Tablature Legend
----------------
L - tied note
x - dead note
g - grace note
(n) - ghost note
> - accentuded note
NH - natural harmonic
AH - artificial harmonic
TH - tapped harmonic
SH - semi harmonic
PH - pitch harmonic
h - hammer on
p - pull off
b - bend
br - bendRelease
pb - preBend
pbr - preBendRelease
brb - bendReleaseBend
\n/ - tremolo bar dip
\n - tremolo bar dive
-/n - tremolo bar Release up
/n\ - tremolo bar inverted dip
/n - tremolo bar return
-\n - tremolo bar Release down
S - shift slide
s - legato slide
/ -  slide into from below or out of upwards
\ -  slide into from above or out of downwards
~ - vibrato
W - wide vibrato
tr - trill
TP - tremolo picking
T - tapping
S - slap
P - pop
< - fade in
^ - brush up
v - brush down


That is all! I hope this helped, and be sure to check out my cover if you are
having problems with the tab. Thanks, oh and one last thing... ROCK OUT!!!!
Tap to rate this tab
# A B C D E F G H I J K L M N O P Q R S T U V W X Y Z