Song name
# A B C D E F G H I J K L M N O P Q R S T U V W X Y Z

Our Last Night - Oak Island tab

-------------------------------------------------------------------------------
                             Oak Island - Our Last Night
-------------------------------------------------------------------------------
Tabbed by:Adam Guion
E-mail: AdamGuion@Gmail.com

This song sounded pretty simple at first, but after switching to a better pair of 
headphones OLN doesn't disappoint with a song more complex than it really sounds.
I've added time frames for each section just so it's easier to understand and 
there aren't any holes in the tab.I not completely confident about the lead guitar
in the second breakdown, you've been warned. Cheers!

Tuning:Drop C


Intro (0:00-0:36)
D|---------------------------------------------------------------------------|
A|14-15-14-15-14--------------11-12-11-12-11---------------------------------|
F|12-12-12-12-12---X4---------11-11-11-11-11-----X4--------------------------|
C|---------------------------------------------------------------------------|
G|---------------------------------------------------------------------------|X4
C|---------------------------------------------------------------------------|


Band comes in.(0:18-0:36) 
D|---------------------------------------------------------------------------|
A|---------------------------------------------------------------------------|
F|---------------------------------------------------------------------------|
C|---------------------------------------------------------------------------|X2
G|0~~00000~~00000~~00000~~00004~~44444~~44444~~44444~~4444-------------------|
C|0~~00000~~00000~~00000~~00004~~44444~~44444~~44444~~4444-------------------|

Break(0:36-0:45)

(0:45-0:54)
D|---------------------------------------------------------------------------|
A|---------------------------------------------------------------------------|
F|---------------------------------------------------------------------------|
C|---------------------------------------------------------------------------|
G|---------------------------------------------------------------------------|
C|000-0-00-00--00-00-00-244-4-44-44-44-44-44-442-----------------------------|
  ..    .  .   .  .  .        .  .  .. .  .  . 
Verse 1(0:54-1:12)
D|---------------------------------------------------------------------------|
A|---------------------------------------------------------------------------|
F|---------------------------------------------------------------------------|
C|---------------------------------------------------------------------------|
G|---------------------------------------------------------------------------|
C|000-0-00-00--00-00-00-244-4-44-44-44-44-44-442-----------------------------|
  ..    .  .   .  .  .   .    .  .  .. .  .  . 
D|---------------------------------------------------------------------------|
A|---------------------------------------------------------------------------|
F|---------------------------------------------------------------------------|
C|------------------0------4-------------------------------------------------|
G|------------------0-0000-4-X32---------------------------------------------|
C|00-0-00-00-00-00-00-0000-4-------------------------------------------------|
  .    .  .  .. .  .  ....

Just guitar one(1:12-1:16)


Repeat Chorus(1:17-1:34)
Repeat Verse(1:34-1:51)

Breakdown? (1:51-2:10)

D|---------------------------------------------------------------------------|
A|---------------------------------------------------------------------------|
F|---------------------------------------------------------------------------|
C|--------4-4----------------------------------4-----------------------------|
G|-2------------2--2-------------------------46------------------------------|
C|--40-X4--40-40-40-40-400400400400700700-467--------------------------------|

D|---------------------------------------------------------------------------|
A|---------------------------------------------------------------------------|
F|---------------------------------------------------------------------------|
C|--------4-4----------------------------------4-----------------------------|
G|-2------------2--2-------------------------46------------------------------|
C|--40-X4--40-40-40-40-400400400400700700-467--------------------------------|


Repeat Chorus(2:10-2:46)

Breakdown 2? (2:46-3:04)
Guitar 1
Not sure about this part.
D|--------------------------------10-14-12-10-12-10----10-9------------------|
A|-14-12-10-12-10--------10-12-14-------------------14-----------------------|
F|----------------13-14------------------------------------------------------|
C|---------------------------------------------------------------------------|
G|---------------------------------------------------------------------------|
C|---------------------------------------------------------------------------|

Guitar 2
D|---------------------------------------------------------------------------|
A|---------------------------------------------------------------------------|
F|----------2--X10-----------------------------------------------------------|
C|-0--2--0--6-------444222---------------------------------------------------|
G|-0--2--0----------444222---------------------------------------------------|
C|-0--2--0----------444222---------------------------------------------------|

D|---------------------------------------------------------------------------|
A|---------------------------------------------------------------------------|
F|------------11-------------------------------------------------------------|
C|-0--2--0----x---X16--------------------------------------------------------|
G|-0--2--0----9--------------------------------------------------------------|
C|-0--2--0-------------------------------------------------------------------|

Guitar one plays the intro again(3:04-3:09)
Chorus(3:09-3:45)

Welp, that's pretty much it for this song. As always if you find mistakes let me
know or post the corrections yourself. A solid EP by OLN overall, I'm anxious to 
see what they try in the future.
************************************

| /   slide up
| \   slide down
| h   hammer-on
| p   pull-off
| ~   vibrato
| +   harmonic
| x   Mute note
| b   Bend
| pb  Pre-bend
| br  Bend release
| pbr Pre-bend release
| brb Bend release bend

************************************
Tap to rate this tab
# A B C D E F G H I J K L M N O P Q R S T U V W X Y Z