Song name
# A B C D E F G H I J K L M N O P Q R S T U V W X Y Z

Our Reflections - Time For Sorrow tab

Ola!!!1
esta es mi primer cancion sacada de oido asi que espero que este bien echa

hahahaha
xD!!!!



Intro
[----------66-55-----------------66-55----------------------------------------------------]
[----------------66-55----------------66-55-----------------------------------------------]
[-----66-77------------55---66-77----------55------------77---------------------77--------]
[---55--------------------55-------------------3-55-77-88--88-77-55--33-55-77-88--88-77-55]
[-----------------------------------------------------------------------------------------]
[-----------------------------------------------------------------------------------------]





cUANDO EMPIESA a cANTAR se hace lo mismo .

eSTA sE HACE 2 VECES
[-------------------------------------------------------------------------]
[----6-7-9-7-6-7-6---------5-6-8-6-5-6-5----------------------------------]
[-------------------------------------------------------------------------]
[-----------------.(x2)---------------------(X2)--------------------------]
[--00--------------------00-----------------------------------------------]
[--00--------------------00-----------------------------------------------]
   ..                    ..


dENUEVO
[----------66-55-----------------66-55----------------------------------------------------]
[----------------66-55----------------66-55-----------------------------------------------]
[-----66-77------------55---66-77----------55------------77---------------------77--------]
[---55--------------------55-------------------3-55-77-88--88-77-55--33-55-77-88--88-77-55]
[-----------------------------------------------------------------------------------------]
[-----------------------------------------------------------------------------------------]

lUEGO lE cONTINUARE..........

Tap to rate this tab
# A B C D E F G H I J K L M N O P Q R S T U V W X Y Z