Song name
# A B C D E F G H I J K L M N O P Q R S T U V W X Y Z

Our Reflections - The Sky Is On Fire tab

[-----------------------------------------------------------------------]
[--------11-11-------11-11--------9--9---------7--7---------------------]
[--------14-14-------14-14--------12-12--------10-10--------------------]
[-----------------------------------------------------------------------]
[-0-0000------0-0000-------0-0000-------0-0000--------------------------]
[-0-0000------0-0000-------0-0000-------0-0000--------------------------]x2

[-----------------------------------------------------------------------]
[-----------------------------------------------------------------------]
[--------2-2--------3-3--------6-6--------------5h8p5-------------------]
[--------3-3--------5-5--------5-5--------5h8p5-------------------------]
[-0-0000-----0-0000-----0-0000-----0-0000-------------------------------]
[-0-0000-----0-0000-----0-0000-----0-0000-------------------------------]


[-----------------------------------------------------------------------]
[-----------------------------------------------------------------------]
[--------2-2--------3-3--------6-6--------6-----------------------------]
[--------3-3--------5-5--------5-5--------5-5*--------------------------]
[-0-0000-----0-0000-----0-0000-----0-0000-------------------------------]
[-0-0000-----0-0000-----0-0000-----0-0000-------------------------------]
Tap to rate this tab
 
# A B C D E F G H I J K L M N O P Q R S T U V W X Y Z