Song name
# A B C D E F G H I J K L M N O P Q R S T U V W X Y Z

Ourania - Cirtahades tab

Intro:
D:-0-2-0-4-0-3-0-5-0-4-0-6-4b---three-times----------------------------------|
A:---------------------------------------------------------------------------|
D:---------------------------------------------------------------------------|
G:---------------------------------------------------------------------------|
B:---------------------------------------------------------------------------|
E:---------------------------------------------------------------------------|


Verse:
D:-2--2--2--2-1----------------fourteen-times--------------------------------|
A:-2--2--2--2-1--------------------------------------------------------------|
D:-2--2--2--2-1--------------------------------------------------------------|
G:---------------------------------------------------------------------------|
B:---------------------------------------------------------------------------|
E:---------------------------------------------------------------------------|


Chorus:
D:-0-0-2-0-0-4-0-0-5-0-0-7-0-0-3/5--0-0-2-0-0-4-0-0-5-0-0-7-0-0-3-six-times--|
A:-0-0-2-0-0-4-0-0-5-0-0-7-0-0-3/5--0-0-2-0-0-4-0-0-5-0-0-7-0-0-3------------|
D:-0-0-2-0-0-4-0-0-5-0-0-7-0-0-3/5--0-0-2-0-0-4-0-0-5-0-0-7-0-0-3------------|
G:---------------------------------------------------------------------------|
B:---------------------------------------------------------------------------|
E:---------------------------------------------------------------------------|


Verse:
D:-2--2--2--2-1----------------elven-times-----------------------------------|
A:-2--2--2--2-1--------------------------------------------------------------|
D:-2--2--2--2-1--------------------------------------------------------------|
G:---------------------------------------------------------------------------|
B:---------------------------------------------------------------------------|
E:---------------------------------------------------------------------------|

Solo:Rythem guitar:palmuted
D:3---3333333--5---5555555--4---4444444----fifteen-times---------------------|
A:3---3333333--5---5555555--4---4444444--------------------------------------|
D:3---3333333--5---5555555--4---4444444--------------------------------------|
G:---------------------------------------------------------------------------|
B:---------------------------------------------------------------------------|
E:---------------------------------------------------------------------------|

Lead Guitar:
D:-3-5-----------------------------------------------------------------------|
A:----3-5-------------------------7--5-7/9-----------------------------------|
D:-------3-5/7---7-7-7-7-7-7-7-7-5-------------------------------------------|
G:---------------------------------------------------------------------------|
B:----------------------------------------7---9--9/11-9/11-9/11--11-11-11-12-|
E:-----------------------------------------9-7-------------------------------|

D:----------------------------------------------------------------------------|
A:----------------------------------------------------------14-14-14-14-15-14-|
D:-------------------------------15--14-14-14-14-15-14-15-14------------------|
G:--13--13b-13b-13b--13/14--14-15---------------------------------------------|
B:11--------------------------------------------------------------------------|
E:----------------------------------------------------------------------------|

D:-----------15-14b----------------------------------------------------------|
A:------14-15----------------------------------------------------------------|
D:-15-14---------------------------------------------------------------------|
G:---------------------------------------------------------------------------|
B:---------------------------------------------------------------------------|
E:---------------------------------------------------------------------------|

Bridge:
D:3---3333333--5---5555555--4---4444444----eight-times-----------------------|
A:3---3333333--5---5555555--4---4444444--------------------------------------|
D:3---3333333--5---5555555--4---4444444--------------------------------------|
G:---------------------------------------------------------------------------|
B:---------------------------------------------------------------------------|
E:---------------------------------------------------------------------------|


(Pause..............)

Lets get it on


Chorus:
D:-0-0-2-0-0-4-0-0-5-0-0-7-0-0-3/5--0-0-2-0-0-4-0-0-5-0-0-7-0-0-3-six-times--|
A:-0-0-2-0-0-4-0-0-5-0-0-7-0-0-3/5--0-0-2-0-0-4-0-0-5-0-0-7-0-0-3------------|
D:-0-0-2-0-0-4-0-0-5-0-0-7-0-0-3/5--0-0-2-0-0-4-0-0-5-0-0-7-0-0-3------------|
G:---------------------------------------------------------------------------|
B:---------------------------------------------------------------------------|
E:---------------------------------------------------------------------------|
Tap to rate this tab
# A B C D E F G H I J K L M N O P Q R S T U V W X Y Z