Song name
# A B C D E F G H I J K L M N O P Q R S T U V W X Y Z

Ourania - Fliping The Kill Switch tab



Intro:Part 1
D:-0-1-2--0-1-2--0-1-2-----------------------one-time------------------------|
A:------2------3-------2-2--3-3----------------------------------------------|
D:------4------5-------2-2--3-3----------------------------------------------|
G:---------------------------------------------------------------------------|
B:---------------------------------------------------------------------------|
E:---------------------------------------------------------------------------|

Intro:Part 2
D:-0-1-2-----0-1-2-----0-1-2--------5-3-0--------five-times------------------|
A:------2-2-------3-3-------2-2--3-3-----------------------------------------|
D:------4-4-------5-5-------4-4--5-5-----------------------------------------|
G:---------------------------------------------------------------------------|
B:---------------------------------------------------------------------------|
E:---------------------------------------------------------------------------|


Verse:
D:-2/3-2/3-2/3-------4b--2/3-2/3-2/3-1-3------------2/3-2/3-2/3-6-4-5b-------|
A:-2/3-2/3-2/3--2-4-3----2/3-2/3-2/3----1-3-3/5-3b--2/3-2/3-2/3-6-4-5b-------|
D:-2/3-2/3-2/3-----------2/3-2/3-2/3----------------2/3-2/3-2/3-6-4-5b-------|
G:---------------------------------------------------------------------------|
B:---------------------------------------------------------------------------|
E:--------------------------three-times--------------------------------------|


Chorus:
D:-0-1-2-----0-1-2-----0-1-2--------5-3-0--------five-times------------------|
A:------2-2-------3-3-------2-2--3-3-----------------------------------------|
D:------4-4-------5-5-------4-4--5-5-----------------------------------------|
G:---------------------------------------------------------------------------|
B:---------------------------------------------------------------------------|
E:---------------------------------------------------------------------------|


Verse:
D:-2/3-2/3-2/3-------4b--2/3-2/3-2/3-1-3------------2/3-2/3-2/3-6-4-5b-------|
A:-2/3-2/3-2/3--2-4-3----2/3-2/3-2/3----1-3-3/5-3b--2/3-2/3-2/3-6-4-5b-------|
D:-2/3-2/3-2/3-----------2/3-2/3-2/3----------------2/3-2/3-2/3-6-4-5b-------|
G:---------------------------------------------------------------------------|
B:---------------------------------------------------------------------------|
E:--------------------------three-times--------------------------------------|

Chorus:
D:-0-1-2-----0-1-2-----0-1-2--------5-3-0--------five-times------------------|
A:------2-2-------3-3-------2-2--3-3-----------------------------------------|
D:------4-4-------5-5-------4-4--5-5-----------------------------------------|
G:---------------------------------------------------------------------------|
B:---------------------------------------------------------------------------|
E:---------------------------------------------------------------------------|

Solo:
D:-0-2-0---------------------------------------------------------------------|
A:------2-4-4/7---7b-7-5-----------------------------------------------------|
D:-------------5-7------5-7/5--5-5-5-5--6-6-6-6--6-7-6-7--7-5-7-5-6b---------|
G:---------------------------------------------------------------------------|
B:------------------------------------------------------------------5-6------|
E:---------------------------------------------------------------------5-7---|

D:----------------------------------------------2-3--------------------------|
A:-------------------------------------------3-2-----------------------------|
D:----------------------------------------2-3--------------------------------|
G:-----------------------------6b-5-4-3-2------------------------------------|
B:----------13-12/11--11/5--5-6----------------------------------------------|
E:7/12-11-12-----------------------------------------------------------------|

Rythme Guitar Plays During Solo:
D:-0-1-2-----0-1-2-----0-1-2--------5-3-0--------five-times------------------|
A:------2-2-------3-3-------2-2--3-3-----------------------------------------|
D:------4-4-------5-5-------4-4--5-5-----------------------------------------|
G:---------------------------------------------------------------------------|
B:---------------------------------------------------------------------------|
E:---------------------------------------------------------------------------|

Verse:
D:-2/3-2/3-2/3-------4b--2/3-2/3-2/3-1-3------------2/3-2/3-2/3-6-4-5b-------|
A:-2/3-2/3-2/3--2-4-3----2/3-2/3-2/3----1-3-3/5-3b--2/3-2/3-2/3-6-4-5b-------|
D:-2/3-2/3-2/3-----------2/3-2/3-2/3----------------2/3-2/3-2/3-6-4-5b-------|
G:---------------------------------------------------------------------------|
B:---------------------------------------------------------------------------|
E:--------------------------three-times--------------------------------------|

Chorus:
D:-0-1-2-----0-1-2-----0-1-2--------5-3-0--------five-times------------------|
A:------2-2-------3-3-------2-2--3-3-----------------------------------------|
D:------4-4-------5-5-------4-4--5-5-----------------------------------------|
G:---------------------------------------------------------------------------|
B:---------------------------------------------------------------------------|
E:---------------------------------------------------------------------------|
Tap to rate this tab
 
# A B C D E F G H I J K L M N O P Q R S T U V W X Y Z