Song name
# A B C D E F G H I J K L M N O P Q R S T U V W X Y Z

Ourania - Unfinished Bussiness tab

Intro: plammutted
D:-0-0-0-0-0-0-0-0--twice----------------------------------------------------|
A:---------------------------------------------------------------------------|
D:---------------------------------------------------------------------------|
G:---------------------------------------------------------------------------|
B:---------------------------------------------------------------------------|
E:---------------------------------------------------------------------------|

D:-0-0-0-0-0-0-0-0--0-3-6--0-0-0-0-0-0-0-0--0-3-5----------------------------|
A:--------------------3-6---------------------3-5----------------------------|
D:--------------------3-6---------------------3-5----------------------------|
G:---------------------------------------------------------------------------|
B:---------------------------------------------------------------------------|
E:---------------------------------------------------------------------------|

Verse:
D:-0-0-3-6/5--0-0-3/5-4-3--0-0-3-6/5--0-0-3/5-2-4----------------------------|
A:-----3-6/5------3/5-4-3------3-6/5------3/5----2-4/6-2---------------------|
D:-----3-6/5------3/5-4-3------3-6/5------3/5--------------------------------|
G:---------------------------------------------------------------------------|
B:---------------------------------------four-times--------------------------|
E:---------------------------------------------------------------------------|


Chorus: plammutted
D:-0-0-0-0-0-0-0-0--0-0-0-0-0-0-0-0--3-7-5--0-0-0-0-0-0-0-0--0-0-0-0-0-0-0-0-|
A:-----------------------------------3-7-5-----------------------------------|
D:-----------------------------------3-7-5-----------------------------------|
G:---------------------------------------------------------------------------|
B:---------------------------------------------------------------------------|
E:---------------------------------------------------------------------------|

unplammutted
D:---------------------------------------------------------------------------|
A:4/6-4/6-4/6-6/8---8b-------------------------------------------------------|
D:---------------6-8---------------all-together-four-times-------------------|
G:---------------------------------------------------------------------------|
B:---------------------------------------------------------------------------|
E:---------------------------------------------------------------------------|

Verse:
D:-0-0-3-6/5--0-0-3/5-4-3--0-0-3-6/5--0-0-3/5-2-4----------------------------|
A:-----3-6/5------3/5-4-3------3-6/5------3/5----2-4/6-2---------------------|
D:-----3-6/5------3/5-4-3------3-6/5------3/5--------------------------------|
G:---------------------------------------------------------------------------|
B:---------------------------------------four-times--------------------------|
E:---------------------------------------------------------------------------|

Chorus: plammutted
D:-0-0-0-0-0-0-0-0--0-0-0-0-0-0-0-0--3-7-5--0-0-0-0-0-0-0-0--0-0-0-0-0-0-0-0-|
A:-----------------------------------3-7-5-----------------------------------|
D:-----------------------------------3-7-5-----------------------------------|
G:---------------------------------------------------------------------------|
B:---------------------------------------------------------------------------|
E:---------------------------------------------------------------------------|

unplammutted
D:---------------------------------------------------------------------------|
A:4/6-4/6-4/6-6/8---8b-------------------------------------------------------|
D:---------------6-8---------------all-together-four-times-------------------|
G:---------------------------------------------------------------------------|
B:---------------------------------------------------------------------------|
E:---------------------------------------------------------------------------|

Pause...


bridge:
D:0-0-0------0-0-0-0-0-0-0-0---0-0-0-0-0-0-0-0------0-0-0-0-0-0-0-0----------|
A:-0-0-0-5---------------------------------------5-------------twice---------|
D:--0-4-4-5-------------------4-----------------4-5--------------------------|
G:---------------------------------------------------------------------------|
B:---------------------------------------------------------------------------|
E:---------------------------------------------------------------------------|


Solo:
D:-3-------------------------------------------------------------------------|
A:--5-------6b-5-7b---8b-----------------------------------------------------|
D:---3-5-5/7-------6-7---8-6-8-5-8-4-3--8-6-8-5-8-4-3--8-6-8-5-8-4-3b--------|
G:---------------------------------------------------------------------------|
B:---------------------------------------------------------------------------|
E:---------------------------------------------------------------------------|


Chorus: plammutted
D:-0-0-0-0-0-0-0-0--0-0-0-0-0-0-0-0--3-7-5--0-0-0-0-0-0-0-0--0-0-0-0-0-0-0-0-|
A:-----------------------------------3-7-5-----------------------------------|
D:-----------------------------------3-7-5-----------------------------------|
G:---------------------------------------------------------------------------|
B:---------------------------------------------------------------------------|
E:---------------------------------------------------------------------------|

unplammutted
D:---------------------------------------------------------------------------|
A:4/6-4/6-4/6-6/8---8b-------------------------------------------------------|
D:---------------6-8---------------all-together-four-times-------------------|
G:---------------------------------------------------------------------------|
B:---------------------------------------------------------------------------|
E:---------------------------------------------------------------------------|
Tap to rate this tab
# A B C D E F G H I J K L M N O P Q R S T U V W X Y Z