Song name
# A B C D E F G H I J K L M N O P Q R S T U V W X Y Z

Ours - Sometimes tab

This is my interpretation.  I've listened to this CD about 1,000 times.
so it should be very close.  It sounds best with two guitars so
you might want to find a friend (if you have any) and have them play too.
ENJOY!!!!!!!!!


Here is your intro riff.  It is also the chorus.

E------------------------------|
B------------------------------|
G------------------------------|
D-------9--9-----7-7----5------|
A------10-10-----9-9----7------|
E---0---------0-------0--------|

This plays beneath during the intro and chorus

E--2-2-2-3-2---0------------------------|
B--3-3-3-3-3---0------------------------|
G--2-2-2-2-2---0------------------------|
D--------------2------------------------|
A--------------2------------------------|
E--------------0------------------------|

strum a an open D chord twice at the end of the chorus before entering
the verse

verse
E-------------------------------------|
B-----0-------2-------0-------3-------|
G-------0-------0-------0-------4-----|
D-----------2---------------4---------|
A---2-----3---------2-----2-----------|
E-0---------------3-------------------|
"pressure fried the coldest hand........"

bridge is all open major chords:

C,G,D,G,C,G,D

"sometimes sunshines......."
Tap to rate this tab
 
# A B C D E F G H I J K L M N O P Q R S T U V W X Y Z