Song name
# A B C D E F G H I J K L M N O P Q R S T U V W X Y Z

Ours - Dancing Alone tab

This tab was created on the base of an existing tab here on UG, but it is better. The 
intro part is now complete and hopefully correct. This song is one of my many favorites 
from Distorted Lullabies and it is worth having tabs for it, no matter how unpopular the band is.

|--------------------|
|-1p0-1-----1p0-1----|
|--------0---------0-|   x2
|--------------------|
|-3---------3--------|
|--------------------|

|-0-------0----------|
|----33-----3-1-3----|
|--------------------|
|-3---3---3----------|
|--------------------|
|--------------------|

|---------------0----|
|-----0-1-----3------|
|-----------2--------|   x4
|---2-----3----------|
|-3------------------|
|--------------------|

Intro: Am Fmaj7 x2 this way(which is for the verse and the very final part too)
|-0-0-0-0--0-0-0-0--|
|-1-0-1-0--1-0-1-0--|
|-2-2-2-0--2-2-2-0--|
|-2-2-2-0--3-3-3-0--|
|-0-0-0-0--3-3-3-0--|
|-------------------|

Am Fmaj7
Waking from his eyes
Am Fmaj7 Am Fmaj7 Am Fmaj7
You've hurt you
Am Fmaj7
He is just a child
Am Fmaj7 Am Fmaj7 Am Fmaj7
We'll have to try

C Fmaj7 C Fmaj7
I was just kidding all the time
C Fmaj7
How can I have really died
C Fmaj7 C Fmaj7
And why am I dancing
C Fmaj7
Dancing alone

Am Fmaj7 x4

Am Fmaj7
We'll go out tonight
Am Fmaj7 Am Fmaj7 Am Fmaj7
Still searching

Am Fmaj7
For ways to get high
Am Fmaj7 Am Fmaj7 Am Fmaj7
And I've got mine
Am Fmaj7 Am Fmaj7 Am Fmaj7 Am Fmaj7
I can't feel my hands
Am Fmaj7 Am Fmaj7 Am Fmaj7 Am Fmaj7
I can't feel my hands

C Fmaj7 C Fmaj7
I was just kidding all the time
C Fmaj7
How can I have really died
C Fmaj7 C Fmaj7 C Fmaj7
And why am I dancing, dancing alone
C Fmaj7 C Fmaj7
Time moves slowly through these walls

|-0--0-0--0--0---0------------|
|-1--1-1--0--1---1/6-6-6-6----|
|-2--2-2--2--2---2/7-7-7-7----|   x8
|-2--2-2--2--2---2/7-7-7-7----|
|-0--0-0--0--0---0-0-0-0-0----|
|-----------------------------|

play this from the 5th time you play the little tune above^:
|-----------|------------|-------------------------|
|-----------|------------|-------------------------|
|-----------|------------|-7/9-9--9/10-10-10/12-12-|
|5---3--3h5-|-2----------|-------------------------|
|-----------|-------5--5-|-5/7-7--7/-8-8---8/10-10-|
|-----------|------------|-------------------------|

|------------------------------|----|------|
|------------------------------|----|-/12--|
|-12/14-14--14/16-16--16/17-17-|-17-|------|
|------------------------------|----|------|
|-10/12-12--12/14-14--14/15-15-|-15-|------|
|------------------------------|----|------|

Fmaj7 Cmaj7
Still took years to find
Fmaj7 Cmaj7
Lost in a world of our own we'll find
Fmaj7
With hope in our eyes
Cmaj7 Fmaj7
That we find another world!

Outro: Am Fmaj7 x8
Tap to rate this tab
 
# A B C D E F G H I J K L M N O P Q R S T U V W X Y Z