Song name
# A B C D E F G H I J K L M N O P Q R S T U V W X Y Z

Ours - Red Coloured Stars chords

Highlighted       Show chord diagrams
Intro: Cm

F A# Cm
Iíll open my eyes and a new day will come
F A# D# Cm
Iíll see red colored stars in the sky and in your eyes
F A# Cm
Fast away the ugly, just one more bill to pay
F A# D#
All the past will be moon dust that flies, from where we lay
D#
I can feel it, I can feel

Gm Cm F A#
Red colored stars in my hands were the stones that were cast
Gm Cm F Cm
They left us scars, reminders

F A# Cm
Thereís a wall in my way, thereís a war in my way
F A# D# Cm
Tales of love that consumed me hide from the light
F A# Cm
Iím a slave in my head, Iím awake in my bed
F A# D#
Tell the worms they can soon eat tonight, eat tonight
D#
Oh I can feel

Gm Cm F A#
Red colored stars in my hands were the stones that were cast
Gm Cm
They left us scars, reminders
D#
Oh, can you feel it?     x2

Solo: Gm Cm F A# A#M7 D# A# D   x2

e|-10--------|     e|10------10--------------------------------------------------------------|
B|----13-13--|     B|--11-11---11-11--11------11------11-------11-------10---10--13-10-------|
G|-----------| x6  G|-------------------12-12---12-12---------------------11---11------------|
D|-----------|     D|-----------------------------------12-12----12-12-----------------------|
A|-----------|     A|------------------------------------------------------------------------|
E|-----------|     E|------------------------------------------------------------------------|

e|---------------------------------------------------------------------------|
B|/10---10--11--11---13---13---15-15--11---11-------11---11------------------|
G|-----------------------------15-14-----------------------------------------|
D|----12--12--13---13---15---15----------13---13p12---12---12----------------|
A|---------------------------------------------------------------------------|
E|---------------------------------------------------------------------------|


D
Sleep. 
Gm Cm Gm + Riff
Thereís a wall in my way. Thereís a war in my way
D
Sleep.
Gm Cm + Riff
Thereís a wall in my way. Thereís a war in my head
Cm F A# D#
Start our cars and be around
Cm F A# D#
Thereís room enough for you and me
Cm F A# D#
When the sun comes up, weíll leave them down 
Cm F A
And stare into the dream

Riff:
e|-------------------------------------------------------|
B|-------------------------------------------------------|
G|-------------------------------------------------------|
D|-------------------------------------------------------|
A|---------1h3---3b--------------------------------------|
E|---1h3-------------------------------------------------|


Gm Cm F A#
I can feel red colored stars in my hands were the 
stones that were cast
Gm Cm 
They left us scars, reminders
D#
Oh I can feel it  x 10 
Tap to rate this tab
# A B C D E F G H I J K L M N O P Q R S T U V W X Y Z