Song name
# A B C D E F G H I J K L M N O P Q R S T U V W X Y Z

Out Of Your Mouth - Beautiful When Youre Mad tab

Out Of Your Mouth- Beautiful When You're Mad
Tabbed by - Dauntless
Tuning- Drop D


Verse 1(not really any timing, just listen to the CD)
e/------------|
B/------------|
G/------------|
D/---1--------|
A/---1--------|
D/---1--------|


Chorus
e/-------------------------------|
B/-------------------------------|
G/-------------------------------|
D/--1---8------3p1---3p1---------|
A/--1---8------3p1---3p1---------|
D/--1---8------3p1---3p1---------|


Verse 2(Once again, no real timing)
e/------------|
B/------------|
G/------------|
D/--4p3-------|
A/--4p3-------|
D/--4p3-------|

Bridge
e/-------------------------|
B/-------------------------|
G/-------------------------|
D/-------------------------|
A/-------------------------|
D/--4~-1~--4~--1~----------|

Email me if you have any questions or comments- biohazard905@hotmail.com
Don't add me to msn, if you do I'll just block you...
Have a nice day :)
Tap to rate this tab
 
# A B C D E F G H I J K L M N O P Q R S T U V W X Y Z