Song name
# A B C D E F G H I J K L M N O P Q R S T U V W X Y Z

Outbreak - Youre A Waste tab

standard tuning
album-you make us sick
bridge nine records
www.outbreakhc.com
www.myspace.com/outbreak


--------------------------------------------------|
--------------------------------------------------|
---8-----------8-5-7-4--------8-------------------|
-7-8-7-5-7--x4-8-5-7-4--x4--7-8-7-5-7--x4---------|
-7-6-7-5-7-----6-3-5-2------7-6-7-5-7-------------|
-5---5-3-5------------------5---5-3-5-------------|


--------------------------------------------------|
--------------------------------------------------|
---------5-5-5-5-------5-5-5-5--------------------|
-7-7-7-7-5-5-5-5-7-7-7-5-5-5-5--------------------|
-7-7-7-7-3-3-3-3-7-7-7-3-3-3-3--------------------|
-5-5-5-5---------5-5-5----------------------------|


--------------------------------------------------|
--------------------------------------------------|
---------5-5-5-5-------8-8-8-8--------------------|
-7-7-7-7-5-5-5-5-7-7-7-8-8-8-8--------------------|
-7-7-7-7-3-3-3-3-7-7-7-6-6-6-6--------------------|
-5-5-5-5---------5-5-5----------------------------|


--------------------------------------------------|
--------------------------------------------------|
---------5-5-5-5-------5-5-5-5--------------------|
-7-7-7-7-5-5-5-5-7-7-7-5-5-5-5--------------------|
-7-7-7-7-3-3-3-3-7-7-7-3-3-3-3--------------------|
-5-5-5-5---------5-5-5----------------------------|


--------------------------------------------------|
--------------------------------------------------|
---------5-5-5-5-------8~-------------------------|
-7-7-7-7-5-5-5-5-7-7-7-8~-------------------------|
-7-7-7-7-3-3-3-3-7-7-7-6~-------------------------|
-5-5-5-5---------5-5-5----------------------------|


--------------------------------------------------|
--------------------------------------------------|
---8------------8---------------------------------|
-7-8-7-5-7----7-8---------------------------------|
-7-6-7-5-7----7-6---------------------------------|
-5---5-3-5----5-----------------------------------|
Tap to rate this tab
# A B C D E F G H I J K L M N O P Q R S T U V W X Y Z