Song name
# A B C D E F G H I J K L M N O P Q R S T U V W X Y Z

Outbreak - Spit In Your Face tab

standard tuning
album-you make us sick
bridge nine records
www.outbreakhc.com
www.myspace.com/outbreak

--------------------------------------------------|
--------------------------------------------------|
--------------------------------------------------|
-5-5-6-6-8-8-11-11-8-8-6-5-5-5-5-5--x2------------|
-5-5-6-6-8-8-11-11-8-8-6-5-5-5-5-5----------------|
-3-3-4-4-6-6-9--9--6-6-4-3-3-3-3-3----------------|
     . . . . .  .  . . . . . . . .


--------------------------------------------------|
--------------------------------------------------|
--------------------------------------------------|
-5-5-6-6-8-8-11-11-8-8-6-5-5-5-5-5--x4------------|
-5-5-6-6-8-8-11-11-8-8-6-5-5-5-5-5----------------|
-3-3-4-4-6-6-9--9--6-6-4-3-3-3-3-3----------------|


--------------------------------------------------|
--------------------------------------------------|
--------------------------------------------------|
-5-5-5-8-8-8-5-5-5-11-11-11--x8-------------------|
-5-5-5-8-8-8-5-5-5-11-11-11-----------------------|
-3-3-3-6-6-6-3-3-3-9--9--9------------------------|


--------------------------------------------------|
--------------------------------------------------|
--------------------------------------------------|
-5-5-5-8-8-8--11-10-8-6-5-------------------------|
-5-5-5-8-8-8--11-10-8-6-5-------------------------|
-3-3-3-6-6-6--9--8--6-4-3-------------------------|


--------------------------------------------------|
--------------------------------------------------|
--------------------------------------------------|
-5-5-6-6-8-8-11-11-8-8-6-5-5-5-5-5--x3------------|
-5-5-6-6-8-8-11-11-8-8-6-5-5-5-5-5----------------|
-3-3-4-4-6-6-9--9--6-6-4-3-3-3-3-3----------------|


--------------------------------------------------|
--------------------------------------------------|
--------------------------------------------------|
-5-5-6-6-8-8-11-11-8-8-6-5------------------------|
-5-5-6-6-8-8-11-11-8-8-6-5------------------------|
-3-3-4-4-6-6-9--9--6-6-4-3------------------------|
Tap to rate this tab
# A B C D E F G H I J K L M N O P Q R S T U V W X Y Z