Song name
# A B C D E F G H I J K L M N O P Q R S T U V W X Y Z

Outbreak - You Make Us Sick tab

standard tuning
album-you make us sick
bridge nine records
www.outbreakhc.com
www.myspace.com/outbreak


--------------------------------------------------|
--------------------------------------------------|
--------------------------------------------------|
-7-7-5-8------------------------------------------|
-7-7-5-8------------------------------------------|
-5-5-3-6------------------------------------------|


-----------------------------------------------------------------|
-----------------------------------------------------------------|
-----------------------------------------------------------------|
-7-7-7-7-8-8-8-8-7-7-7-7-8-8-8-8-7-7-7-7-8-8-8-8-2-2-2-2-2-2-2-2-|x3
-7-7-7-7-8-8-8-8-7-7-7-7-8-8-8-8-7-7-7-7-8-8-8-8-2-2-2-2-2-2-2-2-|
-5-5-5-5-6-6-6-6-5-5-5-5-6-6-6-6-5-5-5-5-6-6-6-6-0-0-0-0-0-0-0-0-|


-----------------------------------------------------------------|
-----------------------------------------------------------------|
-----------------------------------------------------------------|
-7-7-7-7-8-8-8-8-7-7-7-7-8-8-8-8-7-7-7-7-8-8-8-8-7-7-7-7-8-8-8-8-|
-7-7-7-7-8-8-8-8-7-7-7-7-8-8-8-8-7-7-7-7-8-8-8-8-7-7-7-7-8-8-8-8-|
-5-5-5-5-6-6-6-6-5-5-5-5-6-6-6-6-5-5-5-5-6-6-6-6-5-5-5-5-6-6-6-6-|


--------------------------------------------------|
--------------------------------------------------|
--------------------------------------------------|
-7-7-7-7-8-8-8-8-5-5-5-5-8-8-8-8--x3--------------|
-7-7-7-7-8-8-8-8-5-5-5-5-8-8-8-8------------------|
-5-5-5-5-6-6-6-6-3-3-3-3-6-6-6-6------------------|


--------------------------------------------------|
--------------------------------------------------|
--------------------------------------------------|
-7-7-7-7-8-8-8-8--7-7-5-8-------------------------|
-7-7-7-7-8-8-8-8--7-7-5-8-------------------------|
-5-5-5-5-6-6-6-6--5-5-3-6-------------------------|


--------------------------------------------------|
--------------------------------------------------|
-----8-8-8-8---8-8-8------------------------------|
-7-7-8-8-8-8-7-8-8-8-7-7-7-7---x4-----------------|
-7-7-6-6-6-6-7-6-6-6-7-7-7-7----------------------|
-5-5---------5-------5-5-5-5----------------------|


--------------------------------------------------|
--------------------------------------------------|
--------------------------------------------------|
-7~-----------------------------------------------|
-7~-----------------------------------------------|
-5~-----------------------------------------------|
Tap to rate this tab
# A B C D E F G H I J K L M N O P Q R S T U V W X Y Z