Song name
# A B C D E F G H I J K L M N O P Q R S T U V W X Y Z

Outbreakband - I Give You Glory chords

Highlighted       Show chord diagrams
hi guys
we actually play this song at church as a keyboard player
so hope you'll enjoy and god bless.. :)

INTRO: (C G Am F)
e:---------------------------------------------------------------------|
B:---------------------------------------------------1-1---------------|
G:-------------------------------------------------------2-2-0-0-------|
D:---------8-8-7-7---------8-8-7-7---------8-8-7-7---------------3-3---|
A:---3-3-3-----------2-2-2-----------0-0-0-----------------------------|
E:---------------------------------------------------------------------|

STANZA:
         C
Oh, how beautiful
          G
Are You, Lord
          Am
It's Your words
           F
It's Your love
          C
Oh, how glorious
          G
Are You, Lord
          Am
It's Your power
             F
It was Your cross

REFRAIN:
      C
That saved me
       G
And rescued me
        Am
Just a moment there
        F
Set me free

CHORUS:
             C
I give You glory, glory
             G
I give You glory, glory
             Am
I give You glory, glory
   F
Jesus

INTERLUDE: (C G Am F)
e:---------------------------------------------------------------------|
B:---------------------------------------------------1-1---------------|
G:-------------------------------------------------------2-2-0-0-------|
D:---------8-8-7-7---------8-8-7-7---------8-8-7-7---------------3-3---|
A:---3-3-3-----------2-2-2-----------0-0-0-----------------------------|
E:---------------------------------------------------------------------|

STANZA:
         C
Oh, how beautiful
          G
Are You, Lord
          Am
It's Your words
           F
It's Your love
          C
Oh, how glorious
          G
Are You, Lord
          Am
It's Your power
             F
It was Your cross

REFRAIN:
      C
That saved me
       G
And rescued me
        Am
Just a moment there
        F
Set me free

CHORUS:
             C
I give You glory, glory
             G
I give You glory, glory
             Am
I give You glory, glory
   F
Jesus

BRIDGE:
 F                G
With a crown of thorns
       Am             C
You became my King forever
 F                G
With a crown of thorns
       Am             C
You became my King forever

 F                G
With a crown of thorns
       E             Am
You became my King forever
 F                G
With a crown of thorns
       E             Am
You became my King forever
 F                G
With a crown of thorns
       E             Am
You became my King forever
 F                G
With a crown of thorns
       E             Am
You became my King forever

REFRAIN:
      C
That saved me
       G
And rescued me
        Am
Just a moment there
        F
Set me free

CHORUS: [2x]
             C
I give You glory, glory
             G
I give You glory, glory
             Am
I give You glory, glory
   F
Jesus

INTERLUDE: [2x] (C G Am F)
e:---------------------------------------------------------------------|
B:---------------------------------------------------1-1---------------|
G:-------------------------------------------------------2-2-0-0-------|
D:---------8-8-7-7---------8-8-7-7---------8-8-7-7---------------3-3---|
A:---3-3-3-----------2-2-2-----------0-0-0-----------------------------|
E:---------------------------------------------------------------------|

OUTRO: (C E F F# G B C)
e:----------------------------------|
B:----------------------------------|
G:----------------------------------|
D:--------2----3----4----5----------|
A:---3--3----3----3----3------2-3---|
E:----------------------------------|
Tap to rate this tab
# A B C D E F G H I J K L M N O P Q R S T U V W X Y Z