Song name
# A B C D E F G H I J K L M N O P Q R S T U V W X Y Z

Outer Limits - Undercover tab

-------------------------------------------------------------------------------
			     UNDERCOVER- THE OUTER LIMITS
-------------------------------------------------------------------------------

Tabbed by:Hockeydude154
Email:Hockeyman203@aol.com

Tuning:EADGBe
 intro clean the first time distorted second time
e|-----------------------------------------------------------------------------|
B|-----------------------------------------------------------------------------|
G|-----------------------------------------------------------------------------|
D|----10-9-10-9-10-9-9-10-12--10-9-10-9-10-9-9-10-7--10-9-10-9-10-9-9-10-7-----|
A|--x0-x0-x0--x0-x0-x0-x0-x0-x0-x0-x0-x0-x0-x0-x0-x0-x8-x8-x8-x8-x8-x8-x8------|
E|-----------------------------------------------------------------------------|

e|-----------------------------------------------------------------------------|
B|-----------------------------------------------------------------------------|
G|-----------------------------------------------------------------------------|
D|--10-9-10-9------------------------------------------------------------------|
A|-x7-x7-x7-x7--7--------------------------------------------------------------|
E|-----------------------------------------------------------------------------|
distorted heavy power chords
e|-------------------------------------------------------------------------------|
B|-------------------------------------------------------------------------------|
G|-------------------------------------------------------------------------------|
D|---7-7-------5-5-------3-3-----------------------------------------------------|
A|---7-7-3-2-0-5-5-3-2-0-3-3-3-2-3-5-5-5-----------------------------------------|
E|---5-5-------3-3-------1-1-----------------------------------------------------|
play it heavy
e|-----------------------------------------------------------------------------|
B|-----------------------------------------------------------------------------|
G|-----------------------------------------------------------------------------|
D|---7-7-7--------5-5-5-----3-3-3----2-2--3-3--5-5-----------------------------|
A|---7-7-7--------5-5-5-----3-3-3----2-2--3-3--5-5-----------------------------|
E|---5-5-5--------3-3-3-----1-1-1----0-0--1-1--3-3-----------------------------|

For the solo i think jacob is playin just box on the fifth fret (blue scale)but hit the 
chords in between solo.
OUtro
e|-------------------------------------------------------------------------------|
B|-------------------------------------------------------------------------------|
G|-------------------------------------------------------------------------------|
D|---7-7-7--------5-5------3-3-3----2-2--3-3--2-3-2-7--7-5-7---------------------|
A|---7-7-7--------5-5------3-3-3----2-2--3-3--2-3-2-7--7-5-7---------------------|
E|---5-5-5--------3-3------1-1-1----0-0--1-1--0-1-0-5--5-3-5---------------------|

| /  slide up
| \  slide down
| h  hammer-on
| p  pull-off
| ~  vibrato
| +  harmonic
| x  Mute note

Intro
Riff
Chords
Intro again
solo
Outro
===============================================================================
See their web page at theouterlimits2.tripod.com
Tap to rate this tab
# A B C D E F G H I J K L M N O P Q R S T U V W X Y Z