Song name
# A B C D E F G H I J K L M N O P Q R S T U V W X Y Z

Outer Limits - Perfect 10 tab

-------------------------------------------------------------------------------
			     Perfect 10- Outer Limits
-------------------------------------------------------------------------------
Tabbed by:hockeyguy145
Email:Hockeyman203

Tuning:EADGBe

Intro/Verse
e|------0---0-----0--------0-----0---0------0---0---0--------0---0---0-------|
B|----1---1----1--------1-----1----1------1---1---1--------1---1---1---------|
G|---------------------------------------------------------------------------|
D|--2-2-2-2-2-2-2-2----------------------------------------------------------|
A|--------------------2-2-2-2-2-2-2-2-2--0-0-0-0-0-0-0-0---------------------|
E|--------------------------------------------------------0-0-0-0-0-0-0------|

Chorus. When he goes "aup,aup" Distorted
e|---------------------------------------------------------------------------|
B|---------------------------------------------------------------------------|
G|-------------------4-4-4-4-4-4-4-4-4---6-6-6-6-6-6-6-6---------------------|
D|-2-2-2-2-2-2-2-2---4-4-4-4-4-4-4-4-4---6-6-6-6-6-6-6-6--7-7-7-7-7-7--------|
A|-2-2-2-2-2-2-2-2---2-2-2-2-2-2-2-2-2---4-4-4-4-4-4-4-4--7-7-7-7-7-7--------|
E|-0-0-0-0-0-0-0-0----------------------------------------5-5-5-5-5-5--------|

Solo
e|--0-0-0-0-0-0-0-0-0-0-/-b9-(10)-b-9-(10)--5---h7---p5--h7-p5------7-p5-----|
B|--0-0-0-0-0-0-5-0-0-0-/-b9-(10)-b-9-(10)--------------------7--5-------7--5|
G|---------------------------------------------------------------------------|
D|---------------------------------------------------------------------------|
A|---------------------------------------------------------------------------|
E|---------------------------------------------------------------------------|

e|--------15--p12------------------------------------------------------------|
B|-0--h5--------15-p12-------------------------------------------------------|
G|--------------------14-p12-------------------------------------------------|
D|--------------------------14-----------------------------------------------|
A|---------------------------------------------------------------------------|
E|---------------------------------------------------------------------------|

Outro
e|------0---0-----0--------0-----0---0------0---0---0--------0---0---0-------|
B|----1---1----1--------1-----1----1------1---1---1--------1---1---1---------|
G|---------------------------------------------------------------------------|
D|--2-2-2-2-2-2-2-2----------------------------------------------------------|
A|--------------------2-2-2-2-2-2-2-2-2--0-0-0-0-0-0-0-0---------------------|
E|--------------------------------------------------------0-0-0-0-0-0-0------|

Intro
verse x2
Chorus
Verse
Chorus
Solo
Outro

| /  slide up
| \  slide down
| h  hammer-on
| p  pull-off
| ~  vibrato
| +  harmonic
| x  Mute note
| b  bend
=============================================================================
to see more go to theouterlimits2.tripod.com
Tap to rate this tab
# A B C D E F G H I J K L M N O P Q R S T U V W X Y Z