Song name
# A B C D E F G H I J K L M N O P Q R S T U V W X Y Z

Outer Limits - Another Night Alone tab

-------------------------------------------------------------------------------
			     another night alone-outer limits
-------------------------------------------------------------------------------
Tabbed by:hockeyguy34
Email:Hockeyman203@aol.com

Tuning:EADGBe
intro distorted x2
e|---------------------------------------------------------------------------|
B|---------------------------------------------------------------------------|
G|---------------------------------------------------------------------------|
D|--7-5-4-7-5-4-h5-4-2-4-2-0-5-2-0-h4-2-0-0----------------------------------|
A|------------------------------------------4-5------------------------------|
E|---------------------------------------------------------------------------|
Clean the first 2 times
e|---------------------------------------------------------------------------|
B|---------------------------------------------------------------------------|
G|---------------------------------------------------------------------------|
D|----4-5-7-5-4----------------4-----2-4-5-4-2-4-----------------------------|
A|--5-----------5----4-5-7-5-4----2-----------------5---5--------------------|
E|-----------------5-----------------------------3-3--33---------------------|
distorted in the chorus and verse . clean to times after riff above

e|---------------------------------------------------------------------------|
B|---------------------------------------------------------------------------|
G|-----7777777777------------------------------------------------------------|
D|-----7777777777--77777777777--999999999-----555555555----------------------|
A|-----5555555555--77777777777--999999999-----555555555----------------------|
E|-----------------55555555555--777777777-----333333333----------------------|
distorted
e|---------------------------------------------------------------------------|
B|---------------------------------------------------------------------------|
G|---------------------------------------------------------------------------|
D|-------------------------------4-h5----4-5-7-5-4-7--4-5--4---4-------------|
A|----4-5--4-5-7-5-4-5-4-5-7-5-7------7--------------7-------7---5-----------|
E|---------------------------------------------------------------------------|
solo distorted
e|---------------------------------------------------------------------------|
B|---------------------------------------------------------------------------|
G|---------------------------------------------------------------------------|
D|----4-5-7-5-4----------------4-----2-4-5-4-2-4-----------------------------|
A|--5-----------5----4-5-7-5-4----2-----------------5---5--------------------|
E|-----------------5-----------------------------3-3--33---------------------|

| /  slide up
| \  slide down
| h  hammer-on
| p  pull-off
| ~  vibrato
| +  harmonic
| x  Mute note
========================================================================
Tap to rate this tab
# A B C D E F G H I J K L M N O P Q R S T U V W X Y Z