Song name
# A B C D E F G H I J K L M N O P Q R S T U V W X Y Z

Outfield - Alone With You tab

Help us improve GuitareTab! Take a short survey!
any comments or suggestions email me @ graj1014@yahoo.com

solo:

e-----------------------------------------------------------|
B-----5b---7/9-----7/9-9-9-7-5/7-----7-5-4-5-4--------------|
G--/6----6-------------------------------------6-4-4h6------|
D-----------------------------------------------------------|
A-----------------------------------------------------------|
E-----------------------------------------------------------|

e------7-9-9-----14/16----14-12-14----12-14-16-17-----------|
B--7/9------------------------------------------------------|
G-----------------------------------------------------------|
D-----------------------------------------------------------|
A-----------------------------------------------------------|
E-----------------------------------------------------------|

that's all
Related for Alone With You tab