Song name
# A B C D E F G H I J K L M N O P Q R S T U V W X Y Z

Outkast - Roses chords

SONG:ROSES
ARTIST:OUTKAST
TABED BY:JOSEPH HUX
-----------------------------
VERSE/CHORUS
NOT INTRO

e|-------------------------------------|----------------------------------|
B|-------------------------------------|----------------------------------|
G|--9-------7-------5-------10---------|--9-------7-------5-----------10--|
D|--9-------7---7---5---5---10--10--10-|--9---9---7---7---5---5---5---10--|
A|--7---7---5---5---3---3---8---8---8--|--7---7---5---5---3---3---3---8---|
E|-------------------------------------|----------------------------------|

e|----------------------------------||
B|----------------------------------||
G|----------------------------------||
D|--10--10---GO BACK TO BEGINNING---||
A|--8---8---AND REPEAT--------------||
E|----------------------------------||


NOTE:WHEN YOU GET TO THE:"And try to put on her makeup in the mirror
                         and crash,crash,crash...

                      e|-------------------|--------------------||
                      B|-------------------|--------------------||
                      G|----------7--------|----------9---------||
                      D|HOLD THE--7--------|THEN GO---9---------||
                      A|----------5--------|-BACK TO--7---------||
                      E|-------------------|--------------------||
                                            "into a ditch"
                          




    JUST REPEAT THAT FOR THE WHOLE SONG-
    SOUNDS BEST ON ELECTRIC-CLEAN-NO DISTORTION.
    ALSO SOUNDS GREAT PLAYED ALONG WITH TRACK.
    --LISTEN TO SONG FOR TIMING--

                                   ENJOY!!!
Tap to rate this tab
 
# A B C D E F G H I J K L M N O P Q R S T U V W X Y Z