Song name
# A B C D E F G H I J K L M N O P Q R S T U V W X Y Z

Outkast - Take Off Your Cool tab

-----------------------------------------------------------------------------
	      Take Off Your Cool - Outkast feat. Norah Jones (Solo)
-----------------------------------------------------------------------------
Tabbed by: X-ChrisCross-X
Email: wildwolf86@googlemail.com

Tuning: Standard 

For the right chords and stuff check out ultimate-guitar.com
Someone posted a good tab for that already.
Right, here´s the solo:

e|-5/8(8)--8\5--8-5---------------------------------------------------------|
B|-----------------6-5--------------------------------------5-6-5-----------|
G|--------------------(7)(5)(5)-7-5--7-55----------5-7-7b5--------7-5-7-----|
D|---------------------------------------7-7---5-7-----------------------7-5|
A|---------------------------------------------------------------------5----|
E|--------------------------------------------------------------------------|

e|---------8---8------------------------------------------------------------|
B|---------10--10-------------------------------------------------5h6p5-----|
G|---------9---9---------------------------------------------5-7--------7---|
D|---------10--10----------------------5-7-7b5-x-(7)-5---5-7----------------|
A|-8p7-8---8---8---(10p8)-(10p7)---5-7---------x----------------------------|
E|---------------------------------------------x----------------------------|

e|-----------------5-8--8-5-------------------------------------------------|
B|5h6p5--------5-6---------6-5----------------------------------------------|
G|------7---5-7---------------7-5-------------------------------------------|
D|--------------------------------7-5-7-5-----------------------------------|
A|----------------------------------------7-5----x-----5-5h7----------------|
E|--------------------------------------------\8~x--5-7--------3-5-3-5-3-5/7|

e|--------------------------------------------------------------------------|
B|--------------------------------------------------------------------------|
G|---------------------------------------7-9-5--7p5-------------------------|
D|---------------------5-7-7/9--5-7-7/9-------------7-5~--------------------|
A|-----------------5-7------------------------------------------------------|
E|5--3-5-3-5/7-3------------------------------------------------------------|

(I use "~" more like "let ring" in this tab rather than the vibrato effect
 described below)

************************************

| /   slide up
| \   slide down
| h   hammer-on
| p   pull-off
| ~   vibrato
| +   harmonic
| x   Mute note
| b   Bend
| pb  Pre-bend
| br  Bend release
| pbr Pre-bend release
| brb Bend release bend
( ) play softly 
************************************
Tap to rate this tab
# A B C D E F G H I J K L M N O P Q R S T U V W X Y Z