Song name
# A B C D E F G H I J K L M N O P Q R S T U V W X Y Z

Outkast - Happy Valentines Day tab

standard tuning
Happy Valentines day
outkast


verse/intro

e|--7--77--9-9-99-9-9--9--9--7-7-77-7------------|
B|--8--88--8-8-88-8-10-10-10-8-8-88-8------------|
G|--9--99--9-9-99-9-9--9--9--7-7-77-7------------|
D|-----------------------------------------------|
A|-----------------------------------------------|
E|-----------------------------------------------|

Chorus(when women are singing)
e|-9-------7------5-------------------------|
B|-10--x4--8--x4--6--x4---------------------|
G|-9-------7------5-------------------------|
D|------------------------------------------|
A|------------------------------------------|
E|------------------------------------------|   Jake
Tap to rate this tab
# A B C D E F G H I J K L M N O P Q R S T U V W X Y Z