Song name
# A B C D E F G H I J K L M N O P Q R S T U V W X Y Z

Outkast - Bombs Over Baghdad tab

-------------------------------------------------------------------------------
      Bombs over Baghdad - Outkast Featuring Rage Against the Machine
-------------------------------------------------------------------------------
Tabbed by: Brett McDonough
Email: blueworm_pants1@yahoo.com

This song is the money,lemme tell ya.

Tuning: Standard

Intro
e|---------------------------------------------------------------------------|
B|---------------------------------------------------------------------------|
G|----1~----4p1h4----1--0~------------4-3h4---1~-----------------------------|
D|---------------------------------------------------------------------------|
A|---------------------------------------------------------------------------|
E|---------------------------------------------------------------------------|

Verse
e|---------------------------------------------------------------------------|
B|---------------------------------------------------------------------------|
G|--3------3--6--6--6----3---------------------------------------------------|
D|--3------3--6--6--6----3---------------------------------------------------|
A|--1------1--4--4--4----1---------------------------------------------------|
E|---------------------------------------------------------------------------|

Chorus
e|---------------------------------------------------------------------------|
B|---------------------------------------------------------------------------|
G|--33333333--66666666---33333333--------------------------------------------|
D|--33333333--66666666---33333333--------------------------------------------|
A|--11111111--44444444---11111111--------------------------------------------|
E|--11111111--44444444---11111111--------------------------------------------|




| /  slide up
| \  slide down
| h  hammer-on
| p  pull-off
| ~  vibrato
| +  harmonic
| x  Mute note
Tap to rate this tab
 
# A B C D E F G H I J K L M N O P Q R S T U V W X Y Z