Song name
# A B C D E F G H I J K L M N O P Q R S T U V W X Y Z

Outkast - Spottieottiedopalicious tab

-------------------------------------------------------------------------------
	             SpottieOttieDopalicious - Outkast
-------------------------------------------------------------------------------
Tabbed by: Dun
Email: jaydun80@hotmail.com

Tuning: standard

e|---------------------------------------------------------------------------|
B|---------------------------------------------------------------------------|
G|--14-14-11-14-11--14-14-11-14-11--11-11-11-11-11---------------------------|
D|-------------------------------------------------12-9----------------------|
A|---------------------------------------------------------------------------|
E|---------------------------------------------------------------------------|

e|---------------------------------------------------------------------------|
B|---------------------------------------------------------------------------|
G|--11-11-11-11-9-9-9-9-11---------------------9-9-9-9-9-11------------------|
D|-------------------------9-9-9-9-12-12-12-12-------------------------------|
A|---------------------------------------------------------------------------|
E|---------------------------------------------------------------------------|

e|---------------------------------------------------------------------------|
B|---------------------------------------------------------------------------|
G|--14-11-14-11-14-11-9/11---------------------------------------------------|
D|---------------------------------------------------------------------------|
A|---------------------------------------------------------------------------|
E|---------------------------------------------------------------------------|


Haven't figured out the chords to the chorus yet ("Damn, Damn, Damn James..."),
but if anyone knows them, I'd appreciate it if you'd send 'em along. -Dun 


| /  slide up
| \  slide down
| h  hammer-on
| p  pull-off
| ~  vibrato
| +  harmonic
| x  Mute note
===============================================================================
Tap to rate this tab
# A B C D E F G H I J K L M N O P Q R S T U V W X Y Z