Song name
# A B C D E F G H I J K L M N O P Q R S T U V W X Y Z

Outlaws - Ghost Riders In The Sky tab

Song: Ghost Riders in the Sky
Artist: The Outlaws
Album: Ghost Riders

I did this because I could not find the tab I was looking for. So I tried to do it by 
Tell me what you think. DoubleS.0312@yahoo.com

INTRO 1

Gtr I (Clean)0.
e|------------------3-3-----------3--1---------1-----1--0-0-----------0-|
b|-1-0-1-3-1-0------3---3-------3----1-------1---1------0---0-------0---|
g|-2-2-2-2-2---2----0-----0---0------2-----2-------2----1-----1---1-----|
d|-2-2-2-2-2-----2--0-------0--------3---3--------------2-------2-------|
a|-0-0-0-0-0--------2----------------3-3----------------2---------------|
E|------------------3----------------1----------------------------------|

|----------------------3-3-----------3--1---------1-----1--0-0-----------0-|
|-----1-0-1-3-1-0------3---3-------3----1-------1---1------0---0-------0---|
|-----2-2-2-2-2---2----0-----0---0------2-----2-------2----1-----1---1-----|
|-----2-2-2-2-2-----2--0-------0--------3---3--------------2-------2-------|
|---0-0-0-0-0-0--------2----------------3-3----------------2---------------|
|-0--------------------3----------------1----------------------------------|

INTRO 2

Gtr II (Little Distortion)
|-----------------------------------|
|-----------------------------------|
|-----------------------------------| Repeat Until Verse 1
|-----------------------------------|
|-0-000-000-000-000-000-000-000-000-|
|-----------------------------------|

Gtr I (Clean)
|-----------------------------3-----------|
|----------------------1-1-1--3--1-1-1--0-|
|----------------------2-2-2--0--2-2-2--1-| Repeat
|----------------------2-2-2--0--2-2-2--2-|
|-000-2-333-2-000---0--0-0-0--2--0-0-0--2-|
|-----------------0-----------3---------0-|

|---------------------|
|---------------------|
|---------------12b14-|
|---------------------|
|-3-2-------2h3-------|
|-----1-1-1-----------|



Verse 1

Gtr II (Little Distortion)
|---------------------------------------------|
|---------------------------------------------|
|---------------------------------------------|
|---------------------------------------------|
|---0-000-000-000-2-3-333-333-333-333-333-333-|
|-0-------------------------------------------|

Gtr I (Clean)
|--------------------------|
|--------------------------|
|--------------------------|
|--------------------------|
|---0-00-2-3-33-2----------|
|-0---------------3-33-0-3-|

Gtr II (Little Distortion)
|-------------------------------------------|
|-------------------------------------------|
|-------------------------------------------|
|-------------------222-222-222-222-222-222-|
|---0-000-000-000-3-------------------------|
|-0-----------------------------------------|

Gtr I (Clean)
|--------------------------|
|--------------------------|
|--------------------------|
|---------------0-2-22---2-|
|---0-00-2-3-33--------3---|
|-0------------------------|

Gtr II (Little Distortion)
|-----------------------------------|
|-----------------------------------|
|-----------------------------------|
|-----------------------------------|
|-0-000-000-000-000-000-000-000-000-|
|-----------------------------------|

Gtr I (Clean) & II (Little Distortion)
|-------------------------|
|-------------------------|
|---2-22-2-2--------------|
|-2----------2-2-22-2-----|
|---------------------3-0-|
|-------------------------|

Gtr I (Clean)
|--------3-----------|
|-1-1-1--3--1-1-1--0-|
|-2-2-2--0--2-2-2--1-|
|-2-2-2--0--2-2-2--2-|
|-0-0-0--2--0-0-0--2-|
|--------3---------0-|

Gtr II (Little Distortion)
|---------------------------------------------|
|---------------------------------------------|
|---------------------------------------------|
|---------------------------------------------|
|---0-000-000-000-2-3-333-333-333-333-333-333-|
|-0-------------------------------------------|

Gtr I (Clean)
|--------------------------|
|--------------------------|
|--------------------------|
|--------------------------|
|---0-00-2-3-33-2----------|
|-0---------------3-33-0-3-|

Gtr II (Little Distortion)
|-------------------------------------------|
|-------------------------------------------|
|-------------------------------------------|
|-------------------222-222-222-222-222-222-|
|---0-000-000-000-3-------------------------|
|-0-----------------------------------------|

Gtr I (Clean)
|--------------------------|
|--------------------------|
|--------------------------|
|---------------0-2-22---2-|
|---0-00-2-3-33--------3---|
|-0------------------------|

Gtr I (Clean) & II (Little Distortion)
|-------------------------|
|-------------------------|
|---2-22-2-2--------------|
|-2----------2-2-22-2-----|
|---------------------3-0-|
|-------------------------|

Gtr II (Little Distortion)
|-----------------------------------|
|-----------------------------------|
|-----------------------------------|
|-----------------------------------|
|-0-000-000-000-000-000-000-000-000-|
|-----------------------------------|

Gtr I (Clean)
|--------3-----------|
|-1-1-1--3--1-1-1--0-|
|-2-2-2--0--2-2-2--1-|
|-2-2-2--0--2-2-2--2-|
|-0-0-0--2--0-0-0--2-|
|--------3---------0-|
Tap to rate this tab
# A B C D E F G H I J K L M N O P Q R S T U V W X Y Z