Song name
# A B C D E F G H I J K L M N O P Q R S T U V W X Y Z

Outlaws - Ghos Triders In The Sky tab

-------------------------------------------------------------------------------
			    GHOST RIDERS IN THE SKY by: The Outlaws
-------------------------------------------------------------------------------
Tabbed by:Nick

Email:MCdefensiveEND15@aol.com

Tuning: standard

e|-----------------------------------------------------------------------------|
B|-----------------------------------------------------------------------------|
G|------------------------------------------------------------------2-2-2-2----|
D|-----------------------------------------------0-2-2-2-0-2--2-2-2------------|
A|-0-0-0-0-2-3-3-3--------------0-0-0-0-2-3-3-3--------------------------------|
E|-----------------0-3-3-3-0-3-------------------------------------------------|

e|------------------------------------------------------------------------------|
B|------------------------------------------------------------------------------|
G|------------------------------------------------------------------------------|
D|-2-2-2-2----------------------------------------------------------------------|
A|-----------3-3-0---------3-------3-3-3--0-0-----0-----------------------------|
E|------------------1-1-1-----------------------3-------------------------------|


well this is one of my first few tabs so play up and enjoy...listen to the song for the 
timing but this is the 100% right way to play this song..im 14 and i can play this so i 
most of u can play it
Tap to rate this tab
# A B C D E F G H I J K L M N O P Q R S T U V W X Y Z