Song name
# A B C D E F G H I J K L M N O P Q R S T U V W X Y Z

Outrage - Same Old Story tab

Same Old Story
Outrage
Demo 08

standard tuning.

--------------------------------------|
-------------8-8-8-8-8p6-(6)----------|
--------5----5-5-5-5-5(5)-5-----------|
-----7--------------------------------|
--5-----------------------------------|
--------------------------------------|

--------------------------------------|
--------------------------------------|
--------2-----------------------------|
-----3--------------------------------|
--1-----------------------------------|
--------------------------------------|


--11111111111117775555555555555333----|
--------------------------------------|
--------------------------------------|
--------------------------------------|
--------------------------------------|
--------------------------------------|

--111111111111177710101010101010101010101010101010--|
----------------------------------------------------|
----------------------------------------------------|
----------------------------------------------------|
----------------------------------------------------|
----------------------------------------------------|


--------------------------------------|
-------------8-8-8-8-8p6-(6)----------|
--------5----5-5-5-5-5(5)-5-----------|
-----7--------------------------------|
--5-----------------------------------|
--------------------------------------|

--------------------------------------|
--------------------------------------|
--------2-----------------------------|
-----3--------------------------------|
--1-----------------------------------|
--------------------------------------|
Tap to rate this tab
 
# A B C D E F G H I J K L M N O P Q R S T U V W X Y Z