Song name
# A B C D E F G H I J K L M N O P Q R S T U V W X Y Z

Over My Dead Body - Over My Dead Body tab

-----------------------------------------------------------------------------
              Over my dead body-Over my dead body
-----------------------------------------------------------------------------
Tabbed by:Fielding
Email:Fieldingfenn@yahoo.com

Tuning:Standard
                     X8                         X4
e|------------------------------------|-------------------------------------|
B|------------------------------------|-------------------------------------|
G|------4------5----------------------|---4----------5----------------------|
D|------4---4---5--4---7---5----------|---4-X3-4-----5-X3--4------7--5------|
A|------2---4---3--4---7---5----------|---2----4-X3--3-----4-X3---7--5------|
E|----------2------2---5---3----------|--------2-----------2------5--3------|
                                       PM|____________________|    

 (I will...)
e|--------------------------------------------------------------------------|
B|--------------------------------------------------------------------------|
G|----4--2--4--5--4---------------------------------------------------------|
D|----4--2--4--5--4---------------------------------------------------------|
A|----2--0--2--3--2---------------------------------------------------------|
E|--------------------------------------------------------------------------|
Tap to rate this tab
 
# A B C D E F G H I J K L M N O P Q R S T U V W X Y Z