Song name
# A B C D E F G H I J K L M N O P Q R S T U V W X Y Z

Overkill - Hellish Pride tab

Help us improve GuitareTab! Take a short survey!
Oh HEllyeah overkill's new album is awsome get it.
Hellish pride:

tunning: Drop D

INTRO:

E|------------------------------------|
B|------------------------------------|
G|--------------------------2---------|
D|---8--6--9--XX-XXX--8--6--2--XXX-XXX|
A|---8--6--9--XX-XXX--8--6--0--XXX-XXX|
D|------------XX-XXX-----------XXX-XXX|

THE RIFF:

E|------------------------------------------------|
B|------------------------------------------------|
G|------------------------------------------------|
D|----------------------------------0-1-0---------|
A|--1-1-4-1-1-1-4-1-1-1-4-1-1-1--1-4------4-------|
D|--1-1-4-1-1-1-4-1-1-1-4-1-1-1--1-4------4-------|


BRIDGE:
E|----------------------------|
B|----------------------------|
G|----------------------------|
D|----------------------------|
A|--4-4-XXXX-6-6-XX-6-7-------|
D|--4-4-XXXX-6-6-XX-6-7-------|

CHORUS:
|-----------------------------|
|-----------------------------|
|-----------------------------|
|--1--2--4--6--4--------------|
|--1--2--4--6--4--------------|
|--1--2--4--6--4--------------|
   PLAY 2X
E|-----------------------------|
B|-----------------------------|
G|-----------------------------|
D|--7-6-4-6--------------------|
A|--7-6-4-6--------------------|
D|--7-6-4-6--------------------|

THATS PRETTY MUCH THE WHOLE SONG LISTEN TO IT FOR THE ORDER.  THE SOLO I JUST IMPROVE 
WHAT SOUNDS GOOD BUT THE FIRST PART IS BASED AROUND THE SMOKE ON THE WATER RIFF.
Related for Hellish Pride tab