Song name
# A B C D E F G H I J K L M N O P Q R S T U V W X Y Z

Overkill - Blood Money tab

Blood Money
Overkill
Overkill - End of the Line... Tab Page!

More to come of this song

                                                                     7x
E||---------------------------------|--------------------------------||
B||---------------------------------|--------------------------------||
G||*--------------------------------|-------------------------------*||
D||*--------------------------------|-------------------------------*||
A||---------------------------------|--------------------------------||
E||---0--0-0-3-2-0-0-0--0-0-3-2-0-0-|--0--0-0-3-2-0-0-0--0-0-3-2-5---||


                                                               2x
---------------------------------|-----------------------------||
---------------------------------|-----------------------------||
*--------------------------------|----------------------------*||
*--------------------------------|-----------------9---9---9--*||
---------------------------------|-----------------7---7---7---||
---0--0-0-3-2-0-0-0--0-0-3-2-0-0-|--0--0-0-3-2-0-0-0---0---0---||


                                                                            
--------------------------------|--------------------||--------------------|
--------------------------------|--------------------||--------------------|
--------------------------------|--------------------||*-------------------|
--------------------------------|--9--------9--------||*-------------------|
--------------------------------|--7--------7--------||---2----------------|
--0--0-0-3-2-0-0-0--0-0-3-2-0-0-|--------------------||---0----------------|


                                                                 
-------------------|-------------------|-----------------------||
-------------------|-------------------|-----------------------||
-------------------|-------------------|----------------------*||
-------------------|-------------------|----------------------*||
--5----------------|--4----------------|--7--------7---7---7---||
--3----------------|--2----------------|--5--------5---5---5---||
Tap to rate this tab
 
# A B C D E F G H I J K L M N O P Q R S T U V W X Y Z