Song name
# A B C D E F G H I J K L M N O P Q R S T U V W X Y Z

Overkill - Fuck You tab

-------------------------------------------------------------------------------
			     Fuck You - Overkill
-------------------------------------------------------------------------------
Band: Overkill
Song: Fuck You
Album: Fuck You EP

original song by the subhumans

Tabbed by: deathx88
Email: deathx88@yahoo.com

Tuning: Standard


Intro
e|-------------------------------------| e|---------------------------------|
B|-------------------------------------| B|---------------------------------|
G|--7-7-7------7-7-7------7-------9----| G|--7-7-7------7-7-7------7--------|
D|--5-5-5-7----5-5-5-7----5---7---9----| D|--5-5-5-7----5-5-5-7----5---7----|
A|--------5----------5--------5---7----| A|--------5----------5--------5----|
E|-------------------------------------| E|---------------------------------|


Verse riff
e|-----------------------------------------------------------------|x6
B|-----------------------------------------------------------------|
G|----------------------------------7-7-7------7-7-7------7--------|
D|----------------------------------5-5-5-7----5-5-5-7----5---7----|
A|----------------------------------------5----------5--------5----|
E|-0-0-0-0-0-0-0-0-0-0-0-0-0-0-0-0---------------------------------|


alternate verse riff
e|-------------------------------------------------------------------------|
B|-------------------------------------------------------------------------|
G|-------------------------------------------------------------------------|
D|----------------------------------12-12-12-------12-12-12-------12-------|
A|----------------------------------10-10-10-12----10-10-10-12----10---12--|
E|-0-0-0-0-0-0-0-0-0-0-0-0-0-0-0-0-----------10-------------10---------10--|


chorus
e|-----------------------------------------------------------------|x2
B|------------------------8----------------------------------------|
G|------------------------7---7------------------------------------|
D|-10----9-----8-----7----5---7------------------------------------|
A|-10----9-----8-----7--------5------------------------------------|
E|-8-----7-----6-----5------------0-0-0-0-0-0-0-0-0-0-0-0-0-0-0-0--|


Verse 2
e|-----------------------------------------------------------------|x4
B|-----------------------------------------------------------------|
G|----------------------------------7-7-7------7-7-7------7--------|
D|----------------------------------5-5-5-7----5-5-5-7----5---7----|
A|----------------------------------------5----------5--------5----|
E|-0-0-0-0-0-0-0-0-0-0-0-0-0-0-0-0---------------------------------|


chorus
e|-----------------------------------------------------------------|x2
B|------------------------8----------------------------------------|
G|------------------------7---7------------------------------------|
D|-10----9-----8-----7----5---7------------------------------------|
A|-10----9-----8-----7--------5------------------------------------|
E|-8-----7-----6-----5------------0-0-0-0-0-0-0-0-0-0-0-0-0-0-0-0--|


Solo
e|-5---5-----5-----5-----5-----5-8-8-7-5----------------------------------------|
B|-8b----8b----8b----8b----8b------------8-7-5-8-7-5---5------------------------|
G|---------------------------------------------------7---7-5-7-5----------------|
D|---------------------------------------------------------------7-5-7-5---5-7~-|
A|-----------------------------------------------------------------------7------|
E|------------------------------------------------------------------------------|

e|----------------------------5-8-5---------------------------------------------|
B|------------5-8-5-8-5---5-8-------8-5---5-------------------------------------|
G|7br-5---5-7-----------7---------------7---7-5---5-7-5-------------------------|
D|------7---------------------------------------7-------7-5-----------------5-7~|
A|----------------------------------------------------------7-5-3-----3-5-7-----|
E|----------------------------------------------------------------3-5-----------|

e|-------------------------------------------------------------------12------|
B|--------------------------10b--7-10b--7-10b--7-10b--7-10b--10/-----15b-----|
G|-9b---9b---9b---9b---9b~---------------------------------------------------|
D|---------------------------------------------------------------------------|
A|---------------------------------------------------------------------------|
E|---------------------------------------------------------------------------|

e|---------------------------------12---12----12-----12-----12-----12------12---|
B|15-12----12----------------12-15------15b------15b----15b----15b----15b--15b--|
G|------14----14-12----12-14----------------------------------------------------|
D|------------------14----------------------------------------------------------|
A|------------------------------------------------------------------------------|
E|------------------------------------------------------------------------------|


Rhthym to solo
e|---------------------------------|x4
B|---------------------------------|
G|---------------------------------|
D|---------------------------------|
A|---------------------------------|
E|-5-5-5-5-5-5-5-5-5-5-5-5-5-5-5-5-|

e|-----------------------------------------------------------------|x2
B|-----------------------------------------------------------------|
G|----------------------------------7-7-7------7-7-7------7--------|
D|----------------------------------5-5-5-7----5-5-5-7----5---7----|
A|----------------------------------------5----------5--------5----|
E|-0-0-0-0-0-0-0-0-0-0-0-0-0-0-0-0---------------------------------|


chorus
e|-----------------------------------------------------------------|x2
B|------------------------8----------------------------------------|
G|------------------------7---7------------------------------------|
D|-10----9-----8-----7----5---7------------------------------------|
A|-10----9-----8-----7--------5------------------------------------|
E|-8-----7-----6-----5------------0-0-0-0-0-0-0-0-0-0-0-0-0-0-0-0--|


Verse 3
e|-----------------------------------------------------------------|x4
B|-----------------------------------------------------------------|
G|----------------------------------7-7-7------7-7-7------7--------|
D|----------------------------------5-5-5-7----5-5-5-7----5---7----|
A|----------------------------------------5----------5--------5----|
E|-0-0-0-0-0-0-0-0-0-0-0-0-0-0-0-0---------------------------------|

 
chorus outro
e|-----------------------------------------------------------------|
B|------------------------8----------------------------------------|
G|------------------------7---7------------------------------------|
D|-10----9-----8-----7----5---7------------------------------------|
A|-10----9-----8-----7--------5------------------------------------|
E|-8-----7-----6-----5------------0-0-0-0-0-0-0-0-0-0-0-0-0-0-0-0--|

e|-------------------------------------------------|
B|-------------------------------------------------|
G|-------------------------------------------------|
D|-10----9-----8-----7-----10----9-----8-----7-----|
A|-10----9-----8-----7-----10----9-----8-----7-----|
E|-8-----7-----6-----5-----8-----7-----6-----5-----|

e|--------------------------------|
B|------------------------8-------|
G|------------------------7---7---|
D|-10----9-----8-----7----5---7---|
A|-10----9-----8-----7--------5---|
E|-8-----7-----6-----5------------|

e|-------------------------------------------|x3
B|-------------------------------------------|
G|----------------------------------7--------|
D|----------------------------------5---7----|
A|--------------------------------------5----|
E|-0-0-0-0-0-0-0-0-0-0-0-0-0-0-0-0-----------|


outro
e|-------------------------------------------------------------------|
B|-------------------------------------------------------------------|
G|---------------------------------9-9-9-9-9-9-9-9-9-9-9-9-9-9-9-9---|
D|---------------------------------9-9-9-9-9-9-9-9-9-9-9-9-9-9-9-9---|
A|---------------------------------7-7-7-7-7-7-7-7-7-7-7-7-7-7-7-7---|
E|-0-0-0-0-0-0-0-0-0-0-0-0-0-0-0-0-----------------------------------|


| /  slide up
| \  slide down
| h  hammer-on
| p  pull-off
| ~  vibrato
| +  harmonic
| x  Mute note (dead note)
| b  bend note
| br bend and release note
===============================================================================
Tap to rate this tab
 
# A B C D E F G H I J K L M N O P Q R S T U V W X Y Z