Song name
# A B C D E F G H I J K L M N O P Q R S T U V W X Y Z

Overkill - Mad Gone World tab

			     Mad Gone World - Overkill

Tabbed by: Chris Garr

Tuning: EADGBE

e|---------------------------------------------------------|
B|---------------------------------------------------------|
G|---------------------------------------------------------|
D|---------------------------------------------------------|
A|-2----8-7--8-7---5-7---2------5---2---8-7--8-7--5-7---8--|
E|-0----6-5--6-5---3-5---0---0--3---0---6-5--6-5--3-5---6--|

e|----------------------------------------------------|
B|----------------------------------------------------|
G|----------------------------------------------------|
D|----------------------------------------------------|
A|----------------------------------------------------|
E|-0-0-0-0-0-0-0-0-0-0-0-0-0-0-0-0-0-0-0-----5-6-8----|

e|----------------------------------------------------|
B|----------------------------------------------------|
G|-------------------------------7-9------------------|
D|----------------------------9-----------------------|
A|----------------------------------------------------|
E|-0-0-0-0-0-0-0-0-0-0-0-0-0--------------------------|

e|----------------------------------------------------|
B|----------------------------------------------------|
G|----------------------------------------------------|
D|----------------------------------------------------|
A|------7p5-----5------------5-------7p5-----5--------|
E|-0-0-------7------0-0--5h7-----0-0------7-----0-0---|

e|----------------------------------------------------|
B|----------------------------------------------------|
G|----------------------------------------------------|
D|-9-10-----------------------------------------------|
A|-7-8---------7p5-----5-----------5-------7p5-----5--|
E|--------0-0-------7-----0-0--5h7-----0-0------7-----|

e|---------------------------------------------------|
B|---------------------------------------------------|
G|---------------------------------------------------|
D|---------------------------------------------------|
A|-8-10---------7p5-----5-------------5--------------|
E|-6-8-----0-0-------7------0-0--5h7-----------------|

e|--------------------------------------------------|
B|--------------------------------------------------|
G|--------------------------------------------------|
D|----------------------9-10------------------------|
A|------7p5-----5-------7-8---------7p5-----5-------|
E|-0-0-------7-----0-0---------0-0-------7-----0-0--|

e|--------------------------------------------------|
B|--------------------------------------------------|
G|--------------------------------------------------|
D|--------------------------------------------------|
A|------5-------7p5-----5-------8-9-8---------------|
E|--5h7----0-0-------7-----0-0--6-7-6---------------|


e|--------------------------------------------------|
B|--------------------------------------------------|
G|----------------------------------5---------------|
D|----------------------------------5---------------|
A|--7p5---5----7p5---5----7p5---5---3---------------|
E|------7---0------7----0-----7---------------------|

e|--------------------------------------------------|
B|--------------------------------------------------|
G|--------------------------------------------------|
D|--------------9-10---------------7----------------|
A|--------------7-8----------------5----------------|
E|-0-0-0-0-0-0--------0-0-0-0-0-0-----0-0-0-0-0-----|

e|--------------------------------------------------|
B|--------------------------------------------------|
G|---------------------------------------3p2--------|
D|--------------9-10----8---7----5----3------3p2----|
A|--------------7-8---7---6----3----1---------------|
E|-0-0-0-0-0-0--------------------------------------|

e|--------------------------------------------------|
B|--------------------------------------------------|
G|--------------------------------------------------|
D|--------------------------------------------------|
A|---------------8-9-8------------------------------|
E|--0-0-0-0-0-0--6-7-6------------------------------|

e|--------------------------------------------------|
B|--------------------------------------------------|
G|--------------------------------------------------|
D|-----------------------------3---5----------------|
A|-7p5---5--7p5---5--7p5---5---1---3----------------|
E|-----7--------7--------7--------------------------|

e|--------------------------------------------------|
B|--------------------------------------------------|
G|--------------------------------------------------|
D|--------5-----------------------------------------|
A|-5-7-8--3---5-7-8---------------------------------|
E|-3-5-6--------------------------------------------|

e|--------------------------------------------------|
B|--------------------------------------------------|
G|--------------------------------------------------|
D|--8p7-------------7h8p7---x3----------------------|
A|------8p7----7h10-------------------10------8-----|
E|----------10-------------------0-0--8--0-0--6-----|

e|--------------------------------------------------|
B|--------------------------------------------------|
G|--------------------------------------------------|
D|--8p7-------------7h8p7---x3------------------8---|
A|------8p7----7h10------------------7-8---8h10-----|
E|----------10------------------8-10----------------|



e|--------------------------------------------------|
B|--------------------------------------------------|
G|--------------------------------------------------|
D|--9-----7------5------4-5-4--3--------------------|
A|--7-----5------3------2-3-2--1--------------------|
E|--------------------------------------------------|


e|-------------------------------------------------|
B|-------------------------------------------------|
G|-------------------------------------------------|
D|-3-----4-----5----3---4---5----------------------|
A|-1-----2-----3----1---2---3----------------------|
E|---0-0---0-0----0---0---0------------------------|


e|-------------------------------------------------|
B|----------------------------------------12-------|
G|----------------------------------------12-------|
D|-3-----4-----5--------------------------12-------|
A|-1-----2-----3-----------------------------------|
E|---0-0---0-0----0-0-0-0-0-0-0-0-0-0--------------|




e|-------------------------------------------------|
B|-------------------------------------------------|
G|-------------------------------------------------|
D|-------------------------------------------------|
A|------7---7h8-------8p7-------7------------------|
E|--0-0---0------0-0-------10-8----10-7h8----------|


e|-------------------------------------------------|
B|-------------------------------------------------|
G|-------------------------------------------------|
D|----------------------------------10-9-----------|
A|-------7---7h8------10-8-7----8-7----------------|
E|--0-0----0------0-0--------10--------------------|


e|-------------------------------------------------|
B|-------------------------------------------------|
G|-------------------------------------------------|
D|------9----9-10----------------------------------|
A|------7----7-8---x3---7-8-5-7-3-5-2-3------------|
E|--0-0----0---------------------------------------|


e|-------------------------------------------------|
B|-------------------------------------------------|
G|------------------------------------12-11--------|
D|------9----9-10-------10-9---12-10--10-9--12-10--|
A|------7----7-8---x3---8--7---10-8---------10-8---|
E|--0-0----0---------------------------------------|

e|-------------------------------------------------|
B|-------------------------------------------------|
G|-------------------------------------------------|
D|-9-10--7--9--------------------------------------|
A|-7-8---5--7--------------------------------------|
E|-------------------------------------------------|

e|-------------------------------------------------|
B|-------------------------------------------------|
G|-------------------------------------------------|
D|--4---4---5----9---10--12--14----4-5-4-----------|
A|--2---2---3----7---8---10--12----2-3-2-----------|
E|-------------------------------------------------|

e|-------------------------------------------------|
B|-------------------------------------------------|
G|-------------------------------------------------|
D|-------------------------------------------------|
A|-4-5-----7-8-----4-5---8-8-----------------------|
E|-2-3-0-0-5-6-0-0-2-3-0-6-6-----------------------|

e|-------------------------------------------------|
B|-------------------------------------------------|
G|-------------------------------------------------|
D|-----7-8------7-8----------7-8-7-----------------|
A|-7-8------7-8------7-8-10--------10-8------------|
E|-------------------------------------------------|


e|-------------------------------------------------|
B|-------------------------------------------------|
G|-------------------------------------------------|
D|--5---3------------------------------------------|
A|--3---1----2-------------------------------------|
E|-----------0-------------------------------------|



e|-------------------------------------------------|
B|-------------------------------------------------|
G|-------------------------------------------------|
D|-------9---------7--------5--------4-------------|
A|-------7---------5--------3--------2-------------|
E|-0-0-0----0-0-0-----0-0-0---0-0-0----------------|

e|-------------------------------------------------|
B|------6------6-------0------0--------------------|
G|----5------5-------2------2------7---------------|
D|--3------2-------3------2--------7---------------|
A|---------------------------------5---------------|
E|-------------------------------------------------|


Repeat whatever needs Repeating.

***********************************

| /   slide up
| \   slide down
| h   hammer-on
| p   pull-off
| ~   vibrato
| +   harmonic
| x   Mute note
| b   Bend
| pb  Pre-bend
| br  Bend release
| pbr Pre-bend release
| brb Bend release bend

************************************



************************************

| /   slide up
| \   slide down
| h   hammer-on
| p   pull-off
| ~   vibrato
| +   harmonic
| x   Mute note
| b   Bend
| pb  Pre-bend
| br  Bend release
| pbr Pre-bend release
| brb Bend release bend

************************************
Tap to rate this tab
 
# A B C D E F G H I J K L M N O P Q R S T U V W X Y Z