Song name
# A B C D E F G H I J K L M N O P Q R S T U V W X Y Z

Overkill - Who Tends The Fire tab

Who Tends The Fire
OVERKILL
Metal On!!!!

Guitar
The intro is played at =88


E||-------0-----0-----0-----0-----0---|--------0-----0---------0-----0----||
B||-----0---0-----0-----0-----0-----0-|------0---0-----0-----0---0-----0--||
G||*--2-------2-----2-----2-----2-----|----2-------2-------2-------2-----*||
D||*----------------------------------|--3---------------2---------------*||
A||-----------------------------------|-----------------------------------||
E||-----------------------------------|-----------------------------------||

   Em                                    B5             Bb5
--------------------------|--------------------------|-------------------------|
--------0--------0--------|--0--------0--------0-----|-------0--------0--------|
*----------3--------3-----|-----3--------3--------3--|----------3--------3-----|
*--2----------2--------2--|--------2--------2--------|--3----------3--------3--|
--------------------------|--------------------------|-------------------------|
--------------------------|--------------------------|-------------------------|

              F#5          3x                                                            3x
---------------------------||-----------------------------|--------------------------|
--0--------0--------0------||-----------------------------|--------------------------|
-----3--------3--------3--*||*----------------------------|--------------------------|
--------3--------3--------*||*----------------------------|--------------------------|
---------------------------||---2-2-2--------2-2-2--------|--2-2-2--------2-2-2--2-2-|
---------------------------||---0-0-0--0--0--0-0-0--0--0--|--0-0-0--0--0--0-0-0--0-0-|

                                                                             2x
---------------||-----------------------------|------------------------------||
---------------||-----------------------------|------------------------------||
---------------||*----------------------------|-----------------------------*||
--3------------||*----------------------------|-----------------------------*||
--1------------||---2-2-2--------2-2-2--------|--2-2-2--------2-2-2--2-2-2---||
---------------||---0-0-0--0--0--0-0-0--0--0--|--0-0-0--0--0--0-0-0--0-0-0---||


----------------------------|-----------------------------|-------------------|------|
----------------------------|-----------------------------|-------------------|------|
----------------------------|-----------------------------|-------------------|------|
----------------------------|-----------------------------|-------------------|------|
--2-2----------2-2----------|--2-2-------------2-2-2-2----|--2----------------|----4-|
--0-0-0--0--0--0-0-0--0--0--|--0-0-0--0--0--0--0-0-0-0-0--|--0----------------|----2-|


-------------------|------------------||
-------------------|------------------||
-------------------|------------------||
-------------------|------------------||
--3----------------|------------------||
--1----------------|------------------||


|---------------------------------|-------------------|------------------------------|
|---------------------------------|-------------------|------------------------------|
|---------------------------------|--1----------------|------------------------------|
|---------------------------------|--2----------------|------------------------------|
|--8----7----------7---------7----|--2----------------|--8----7----------7---------7-|
|------------10---------7---------|--0----------------|------------10---------7------|


---------------------|---------------------------------|-----------------------------|
---------------------|---------------------------------|-----------------------------|
---------------------|---------------------------------|-----------------------------|
--3-----------------|---------------------------------|------------------------------|
--3------------------|--8----7----------7---------7----|--8----7----------7--------7-|
--1--------17\-------|------------10---------7---------|------------10---------7-----|


---------------------------------|----------------------------------|
---------------------------------|----------------------------------|
---------------------------------|--10----9----------9---------9----|
---------------------------------|-------------12---------9---------|
--8----7----------7---------7----|--8-----7----------7---------7----|
------------10---------7---------|-------------10---------7---------|


--------------------------------------|--13----12----------12----------12----|
--13----12----------12----------12----|--------------15----------12----------|
--------------14----------11----------|--------------------------------------|
--------------------------------------|--------------------------------------|
--8-----7-----------7-----------7-----|--8-----7-----------7-----------7-----|
--------------10----------7-----------|--------------10----------7-----------|


--------------------------|--------------------------|--------------------------|
--------------------------|--------------------------|--------------------------|
--4--4--4--4--4--4--4--4--|--4--4--4--4--4--5-----5--|--4--4--4--4--4--4--4--4--|
--2--2--2--2--2--2--2--2--|--2--2--2--2--2--3--3--3--|--2--2--2--2--2--2--2--2--|
--2--2--2--2--2--2--2--2--|--2--2--2--2--2--3-----3--|--2--2--2--2--2--2--2--2--|
--0--0--0--0--0--0--0--0--|--0--0--0--0--0--1--1--1--|--0--0--0--0--0--0--0--0--|


--------------------------|--------------------------|--------------------------|
--------------------------|--------------------------|--------------------------|
--4--4--4--4--4--5-----5--|--5-----4--4--4--4--4--4--|--4--4--4--4--4--5-----5--|
--2--2--2--2--2--3--3--3--|--3-----2--2--2--2--2--2--|--2--2--2--2--2--3--3--3--|
--2--2--2--2--2--3-----3--|-----2--2--2--2--2--2--2--|--2--2--2--2--2--3-----3--|
--0--0--0--0--0--1--1--1--|--1-----0--0--0--0--0--0--|--0--0--0--0--0--1--1--1--|


--------------------------|--------------------------||
--------------------------|--------------------------||
--4--4--4--4--4--4--4--4--|--4--4--4--4--4--5-----5--||
--2--2--2--2--2--2--2--2--|--2--2--2--2--2--3--3--3--||
--2--2--2--2--2--2--2--2--|--2--2--2--2--2--3-----3--||
--0--0--0--0--0--0--0--0--|--0--0--0--0--0--1--1--1--||


|---------------------------|-------------------------------|------------------------|
|---------------------------|-------------------------------|------------------------|
|*--------------------------|-------------------------------|------------------------|
|*--------5--------7--------|--8--------7--------5/-7--5----|--------5--------7------|
|---7--7-----7--7-----7--7--|-----7--7-----7--7-------------|--7--7-----7--7-----7-7-|
|---------------------------|-------------------------------|------------------------|

                               3x
-------------------------------||-----------------------------------|
-------------------------------||-----------------------------------|
--------------------7---------*||*----------12----------14----------|
--8--------7--------5----7----*||*--14--14--5---14--14--7---14--14--|
-----7--7-----7--7-------5-----||---7---7-------7---7-------7---7---|
-------------------------------||-----------------------------------|


----------------------------------------|----------------------------------|
----------------------------------------|----------------------------------|
--15----------14----------12h-14--12----|----------12----------14----------|
--8---14--14--7---14--14--5h--7---5-----|--14--14--5---14--14--7---14--14--|
------7---7-------7---7-----------------|--7---7-------7---7-------7---7---|
----------------------------------------|----------------------------------|


------------------------------|----------------------------------|
------------------------------|----------------------------------|
--14b---14--12--14--12--------|----------12----------14----------|
--7b----7---5---7---5---14~---|--14--14--5---14--14--7---14--14--|
------------------------7~----|--7---7-------7---7-------7---7---|
------------------------------|----------------------------------|


----------------------------------------|----------------------------------|
----------------------------------------|----------------------------------|
--15----------14----------12--14--12~---|----------12----------14----------|
--8---14--14--7---14--14--5h--7---5~----|--14--14--5---14--14--7---14--14--|
------7---7-------7---7-----------------|--7---7-------7---7-------7---7---|
----------------------------------------|----------------------------------|

                           2x
---------------------------||----------------------|----------------------|
---------------------------||----------------------|----------------------|
--14b---14--12--14~-------*||--14b---14--12--14----|--14b---14--12--14----|
--7b----7---5---7~--------*||--7b----7---5---7-----|--7b----7---5---7-----|
---------------------------||----------------------|----------------------|
---------------------------||----------------------|----------------------|


------------------------------|------------------||
------------------------------|------------------||
--14b---14--12--14--12--------|------------------||
--7b----7---5---7---5---14----|------------------||
------------------------7-----|------------------||
------------------------------|------------------||
Tap to rate this tab
 
# A B C D E F G H I J K L M N O P Q R S T U V W X Y Z