Overkill - New Machine tab

Artist: Overkill
Song: New Machine
Album: Horrorscope

Tabbed by: Frank B
Tuning: E Standard

Intro Riff:                                                                x4
e|------------------------------------------------------------------------|
B|------------------------------------------------------------------------|
G|------------------------------------------------------------------------|
D|------9-10-------9-8--------9-10----9/8----8/7----7/6-------------------|
A|-2----7-8---2----7-6--2-----7-8-----7/6----6/5----5/4-----4-------------|
E|-0-00-------0-00------0-00------00------00-----00-----00222-------------|
PM   ..         ..        ..      ..      ..     ..     ....
 
Verse 1:                                                                   x4
e|------------------------------------------------------------------------|
B|------------------------------------------------------------------------|
G|------------------------------------------------------------------------|
D|----------------------------------------------3-------------------------|
A|2-----2-----2------345--2-----2-----2-----45--1-------------------------|
E|0-011-0-011-0-011-0123--0-011-0-011-0-011-23----------------------------|
PM  ...   ...   ... ....    ...   ...   ... ..

Prechorus                                                                  x2
e|------------------------------------------------------------------------|
B|------------------------------------------------------------------------|
G|------------------------------------------------------------------------|
D|-----------5-4------------2h3p2p0-2h3p2p0-------------------------------|
A|2h4--------3-2--2h4-----------------------------------------------------|
E|0h2-222222------0h2-222222----------------------------------------------|
PM    ......          ......

Altered Intro Riff:
e|------------------------------------------------------------------------|
B|------------------------------------------------------------------------|
G|------------------------------------------------------------------------|
D|------9-10-------9-8--------9-10----9/8----8/7--------------------------|
A|-2----7-8---2----7-6--2-----7-8-----7/6----6/5-----4--------------------|
E|-0-00-------0-00------0-00------00------00-----00222--------------------|
PM   ..         ..        ..      ..      ..     ....

Verse 2:                                                                   x2
e|------------------------------------------------------------------------|
B|------------------------------------------------------------------------|
G|------------------------------------------------------------------------|
D|----------------------------------------------3-------------------------|
A|2-----2-----2------345--2-----2-----2-----45--1-------------------------|
E|0-011-0-011-0-011-0123--0-011-0-011-0-011-23----------------------------|
PM  ...   ...   ... ....    ...   ...   ... ..

Prechorus                                                                  x2
e|------------------------------------------------------------------------|
B|------------------------------------------------------------------------|
G|------------------------------------------------------------------------|
D|-----------5-4------------2h3p2p0-2h3p2p0-------------------------------|
A|2h4--------3-2--2h4-----------------------------------------------------|
E|0h2-222222------0h2-222222----------------------------------------------|
PM    ......          ......

Chorus:                                        
e|-------------------------------------------------|--First--|--Second-----|
B|-------------------------------------------------|--Ending-|--Ending-----|
G|-------------------------------------------------|---------|-------------|
D|-----4--------------4------------4---------------|---------|------7-5----|
A|-------3-2-0-2--------3-2-5--------3-2-0-2--7----|--8/7/5--|--5-7------2-|
E|-2-2------------2-2-------3--2-2------------5-55-|--6/5/3--|--3-3------0-|
PM   .              .            .              ..                    

Bridge: 
e|-------------------------------------------------------------------------|
B|-------------------------------------------------------------------------|
G|-------------------------------------------------------------------------|
D|-------------------------------------------------------------------------|
A|-------------------------------------------------------------------------|
E|0000000000000000000000000000000000000000---------------------------------|
PM........................................ 

e|-------------------------------------------------------------------------|
B|-------------------------------------------------------------------------|
G|-------------------------------------------------------------------------|
D|-------------------------------------------------------------------------|
A|8---7---5/7-5/7-2----------8---7---5-2-----------------------------------|
E|6-0-5-0-3/5-3/5-0-00000000-6-0-5-0-3-0-----------------------------------|
PM  .   .           ........

e|-------------------------------------------------------------------------|
B|-------------------------------------------------------------------------|
G|-------------------------------------------------------------------------|
D|--------------------------------------9\-------------------------=-------|
A|---------8---7---5/7-5/7-----5-----5--7\---------------------------------|
E|00000000-6-0-5-0-3/5-3/5-000-3-000-3-------------------------------------|
PM........   .   .         ...   ...

e|-------------------------------------------------------------------------|
B|-------------------------------------------------------------------------|
G|-------------------------------------------------------------------------|
D|-------------------------------------------------------------------------|
A|---------8---7---5/7-5/7-2----------8---7---5-2--------------------------|
E|00000000-6-0-5-0-3/5-3/5-0-00000000-6-0-5-0-3-0--------------------------|
PM........   .   .           ........

e|-------------------------------------------------------------------------|
B|-------------------------------------------------------------------------|
G|-------------------------------------------------------------------------|
D|--------------------------------------------------9\---------------------|
A|---------8---7---5/7-5/7-----5-----5-----5-----5--7\---------------------|
E|00000000-6-0-5-0-3/5-3/5-000-3-000-3-000-3-000-3-------------------------|
PM........   .   .         ...   ...   ...   ...

e|-------------------------------------------------------------------------|
B|-------------------------------------------------------------------------|
G|-------------------------------------------------------------------------|
D|-------------------------------------------------------------------------|
A|8---7---5/7-5/7-2----------8---7---5-2-----------------------------------|
E|6-0-5-0-3/5-3/5-0-00000000-6-0-5-0-3-0-----------------------------------|
PM  .   .           ........

e|-------------------------------------------------------------------------|
B|-------------------------------------------------------------------------|
G|-------------------------------------------------------------------------|
D|--------------------------------------9\-------------------------=-------|
A|---------8---7---5/7-5/7-----5-----5--7\---------------------------------|
E|00000000-6-0-5-0-3/5-3/5-000-3-000-3-------------------------------------|
PM........   .   .         ...   ...

e|-------------------------------------------------------------------------|
B|-------------------------------------------------------------------------|
G|-------------------------------------------------------------------------|
D|-------------------------------------------------------------------------|
A|---------8---7---5/7-5/7-2----------8---7---5-2--------------------------|
E|00000000-6-0-5-0-3/5-3/5-0-00000000-6-0-5-0-3-0--------------------------|
PM........   .   .           ........

e|-------------------------------------------------------------------------|
B|-------------------------------------------------------------------------|
G|-------------------------------------------------------------------------|
D|--------------------------------------------------9\---------------------|
A|---------8---7---5/7-5/7-----5-----5-----5-----5--7\---------------------|
E|00000000-6-0-5-0-3/5-3/5-000-3-000-3-000-3-000-3-------------------------|
PM........   .   .         ...   ...   ...   ...

e|-------------------------------------------------------------------------|
B|-------------------------------------------------------------------------|
G|-------------------------------------------------------------------------|
D|----4-5---8--8-7---------7-5---------------------------------------------|
A|-2--2-3---6--6-5---5----------x\-----------------------------------------|
E|-0-----------------3----------x\-----------------------------------------|
PM             .

Verse 3:                                                                   x2
e|------------------------------------------------------------------------|
B|------------------------------------------------------------------------|
G|------------------------------------------------------------------------|
D|----------------------------------------------3-------------------------|
A|2-----2-----2------345--2-----2-----2-----45--1-------------------------|
E|0-011-0-011-0-011-0123--0-011-0-011-0-011-23----------------------------|
PM  ...   ...   ... ....    ...   ...   ... ..

Prechorus                                                                  x2
e|------------------------------------------------------------------------|
B|------------------------------------------------------------------------|
G|------------------------------------------------------------------------|
D|-----------5-4------------2h3p2p0-2h3p2p0-------------------------------|
A|2h4--------3-2--2h4-----------------------------------------------------|
E|0h2-222222------0h2-222222----------------------------------------------|
PM    ......          ......

Chorus:                                        
e|------------------------------------------------------------------------|
B|------------------------------------------------------------------------|
G|------------------------------------------------------------------------|
D|-----4--------------4------------4--------------------------Repeat------|
A|-------3-2-0-2--------3-2-5--------3-2-0-2--7----8/7/5-------Until------|
E|-2-2------------2-2-------3--2-2------------5-55-6/5/3---------End------|
PM   .              .            .              ..                    

************************************

| /   slide up
| \   slide down
| h   hammer-on
| p   pull-off
| ~   vibrato
| +   harmonic
| x   Mute note
| b   Bend
| pb  Pre-bend
| br  Bend release
| pbr Pre-bend release
| brb Bend release bend

************************************
Tap to rate this tab
 
# A B C D E F G H I J K L M N O P Q R S T U V W X Y Z