Song name
# A B C D E F G H I J K L M N O P Q R S T U V W X Y Z

Overkill - Hell Is tab

Overkill
Hell is
Album: Immortalis


Intro:

|-------------------------------------|
|-------------------------------------|
|-------------------------------------| x4
|-------------------------------------|
|-1~-4-----4~--5h6p5---------4---3----|
|------6-4-----------4~--4-6---3---2~-|

Riff 2:

|-----------------------------------------------------|
|-----------------------------------------------------|
|-----------------------------------------------------| x4
|-----------------------------------------------------|
|-8-------8-8-/-7-------7-7-/-6-------6-6-/-5/6/5--4~-|
|-6-6-6-6-6-6-/-5-5-5-5-5-5-/-4-4-4-4-4-4-/-3/4/3--2~-|
    * * *         * * *         * * *

Riff 3:

|----------------|
|----------------|
|----------------| x3
|----------------|
|-8----9-8-7-8---|
|-6666-7-6-5-6---|
   ***
then:
|------------|
|------------|
|------------|
|------6-6-6-|
|-8----4-4-4-|
|-6666-------|
   ***

Haven't got a full tab and also don't have a fully accurate tab, just put up what i know 
so far so people can play this song for fun.
Tap to rate this tab
 
# A B C D E F G H I J K L M N O P Q R S T U V W X Y Z