Song name
# A B C D E F G H I J K L M N O P Q R S T U V W X Y Z

Overkill - Drunken Wisdom tab

Drunken Wisdom 
Under The Influence
Overkill

Drop D

Guitar 1 Lead (Bobby)
Guitar 2 Rhythm (Bobby)

2nd Intro
|----------------------------------------------------------------|
|----------------------------------------------------------------|
|----------------------------------------------------------------|
|-----------------------------6------------------------------1---|
|-0-2-3-0-2-3-0-2-3-0-3-0-2-3-6--0-2-3-0-2-3-0-2-3-0-3-0-2-3-1---|
|-0-2-3-0-2-3-0-2-3-0-3-0-2-3-6--0-2-3-0-2-3-0-2-3-0-3-0-2-3-1---|
                                                                  x2
|----------------------------------------------------------------|
|----------------------------------------------------------------|
|----------------------------------------------------------------|
|-----------------------------6------------------------------1-1-|
|-0-2-3-0-2-3-0-2-3-0-3-0-2-3-6--0-2-3-0-2-3-0-2-3-0-3-0-2-3-1-1-|
|-0-2-3-0-2-3-0-2-3-0-3-0-2-3-6--0-2-3-0-2-3-0-2-3-0-3-0-2-3-1-1-|

Verse??????????
|----------------------------------------------------------------|
|----------------------------------------------------------------|
|----------------------------------------------------------------|
|----------------------------------------------------------------|x4
|-0-2-3-0-2/3--0--2-3-0-2/3-0-0---2-3-0-2/3--0-3-3-3-3-1-1-1-1---|
|-0-2-3-0-2/3--0--2-3-0-2/3-0-0---2-3-0-2/3--0-3-3-3-3-1-1-1-1---|

Pre-Chorus
|----------------------------------------------------------------|
|----------------------------------------------------------------|
|----------------------------------------------------------------|
|-----------------------------6------------------------------1---|
|-0-2-3-0-2-3-0-2-3-0-3-0-2-3-6--0-2-3-0-2-3-0-2-3-0-3-0-2-3-1---|
|-0-2-3-0-2-3-0-2-3-0-3-0-2-3-6--0-2-3-0-2-3-0-2-3-0-3-0-2-3-1---|
                                                                  
|---------------------------------------------------|
|---------------------------------------------------|
|---------------------------------------------------|
|-----------------------------6---------------------|
|-0-2-3-0-2-3-0-2-3-0-3-0-2-3-6--0-2-3-0-2-3-0-2-3--|
|-0-2-3-0-2-3-0-2-3-0-3-0-2-3-6--0-2-3-0-2-3-0-2-3--|

Fill
|---------------------|
|---------------------|
|---------------------|
|---------------------|
|-----3---3/5\3-------|
|-3/5---5-------5-3---|
                                                                  
Repeat Verse x4
Repeat Pre-Chorus


Interlude
|-------------------------|
|-------------------------|
|-------------------------|
|--------------------0----|
|-----3---3/5\3------0----|
|-3/5---5-------5-3--0----|

|-------------------------|
|-------------------------|
|---------------------7---|
|---------------------7---|
|-----3---3/5\3-------5---|
|-3-5---5-------5-3-------|

|-------------------------|
|-------------------------|
|-------------------------|
|--------------------0----|
|-----3---3/5\3------0----|
|-3/5---5-------5-3--0----|

|-------------------------|
|-------------------------|
|---------------------7---|
|---------------------7---|
|-----3---3/5\3-------5---|
|-3-5---5-------5-3-------|

|-------------------------------------|
|-------------------------------------|
|-------------------------------------|
|-------------------------------------|
|-----3---3/5\3---------3---3/5\3-----|
|-3/5---5-------5-3-3/5---5-------5-3-|

|-------------------|
|-------------------|
|-------------------|
|-------------------|
|-0-2-3-0-2/3-0-0---|
|-0-2-3-0-2/3-0-0---|

Drum bit
|--------------------|
|--------------------|
|--------------------|
|--------------------|
|--------------------|
|xx//xxx/xxx//xxx/---|

    Epic Part 
|---|----------------------------------------|
|---|----------------------------------------|
|---|----------------------------------------|
|-3-|-0---2---3---5--3--2-3-0---2---3---8--7-|
|-3-|-0---2---3---5--3--2-3-0---2---3---8--7-|
|-3-|-0---2---3---5--3--2-3-0---2---3---8--7-|

Chorus
|-----------------------------------------|
|-----------------------------------------|
|-----------------------------------------|
|--0---2---3---5--3--2-3-0---2---3---8--7-|
|--0---2---3---5--3--2-3-0---2---3---8--7-|
|--0---2---3---5--3--2-3-0---2---3---8--7-|

Solo
|------------------------------------------|
|------------------------------------------|
|------------------------------------------|
|------------------------------------------|
|------------------------------------------|
|------------------------------------------|

After Solo Part
|---------------------------------------------------------------------|
|---------------------------------------------------------------------|
|---------------------------------------------------------------------|
|---------------------------------------------------------------------|
|---------6p5-------------6p5-------------6p5-----6-6-6-6-5-5-5-5-2h3-|
|-0-0-0-0-6p5-0-0-0-0-0-0-6p5-0-0-0-0-0-0-6p5-0-0-6-6-6-6-5-5-5-5-2h3-|
                                                                    x2
|---------------------------------------------------------------------|
|---------------------------------------------------------------------|
|---------------------------------------------------------------------|
|---------------------------------------------------------------------|
|---------6p5-------------6p5-------------6p5-----5h6-----6h8-----2-3-|
|-0-0-0-0-6p5-0-0-0-0-0-0-6p5-0-0-0-0-0-0-6p5-0-0-5h6-0-0-6h8-0-0-2-3-|

Repeat Chorus
Repeat After solo Part x4
Repeat Chorus

Drunken Wisdom Part (Chorus)
Guitar 1
|----------------------------------------------|
|----------------------------------------------|
|----------------------------------------------|
|--3---5---7---8--7--5-7-3---5---7---12-11--12*|Slowly dive bomb
|----------------------------------------------|
|----------------------------------------------|

Guitar 2
|-----------------------------------------|
|-----------------------------------------|
|-----------------------------------------|
|--0---2---3---5--3--2-3-0---2---3---8--7-|
|--0---2---3---5--3--2-3-0---2---3---8--7-|
|--0---2---3---5--3--2-3-0---2---3---8--7-|
Tap to rate this tab
# A B C D E F G H I J K L M N O P Q R S T U V W X Y Z