Song name
# A B C D E F G H I J K L M N O P Q R S T U V W X Y Z

Overkill - Battle tab

                           BATTLE

                       by: Overkill
-----------------------------------------------------------------

Tabbed by: Gaetano Tagliarini    Email: gaetano_tag@yahoo.com   

Tuning: Standard

Legend:

 /    slide up
 \    slide down
 h    hammer-on
 p    pull-off
 ~    vibrato
 A.H  artificial harmanic
 x    Mute note
 b    bend


Intro:

e|----------|------------------------|
B|----------|------------------------|
G|----------|------------------------|
D|----------|-------------------9999-|
A|----------|-2222-222-2222-222-7777-|
E|-0000-000-|-0000-000-0000-000------|
  \---x6---/  .... ... .... ...

e|-------------------------------------------------------------------------|
B|-------------------------------------------------------------------------|
G|-------------------------------------------------------------------------|
D|--------------------------------------------------------------------9999-|
A|--------------------------------------------------2222-222-2222-222-7777-|
E|-000-0000-000-0000-000-0000-000-0000-000-0000-000-0000-000-0000-000------|
                                                    .... ... .... ...           

e|----------------------------------------------------------------------|
B|----------------------------------------------------------------------|
G|----------------------------------------------------------------------|
D|----------------------------------------------------------------------|
A|--------------------------------------------------2222-222-2222-222---|
E|-000-0000-000-0000-000-0000-000-0000-000-0000-000-0000-000-0000-000---|
                                                    .... ... .... ...
                                                   \--------x2-------/

e|------------------------------------|
B|------------------------------------|
G|------------------------------------|
D|-9999-999-9999-999-9999-999-9999--3-|
A|-7777-777-7777-777-7777-777-7777--3-|
E|----------------------------------1-|

e|---------------------------------------------------------------------|
B|---------------------------------------------------------------------| 
G|---------------------------------------------------------------------| 
D|---------------------------------3---------------------------------5-| x2
A|-2222-222-2222-222-2222-222-2222-3-2222-222-2222-222-2222-222-2222-5-|
E|-0000-000-0000-000-0000-000-0000-1-0000-000-0000-000-0000-000-0000-3-| 
   .... ... .... ... .... ... ....   .... ... .... ... .... ... ....

e|-------------------------------|-------------------------------------|
B|-------------------------------|-------------------------------------|
G|-------------------------------|-------------------------------------|
D|----------------9-7------------|------------7--9-9-9--9-9-----A.H----|
A|-2-8-7---5-7-8--7-5-8---7-5-2--|-7-5-3--5-3-5--7-7-7--7-7--5--7----2-|
E|-0-6-5---3-5-6------6---5-3-0--|-5-3-1--3-1------------------------0-|
  
   \------------x2-------------/


e|--------------------------|
B|--------------------------|
G|--------------------------|
D|--------------------------|
A|--------------------7x8x5-|
E|--------------------5x6x3-|


e|-------------------|--------------------|
B|-------------------|--------------------|
G|-------------------|--------------------|
D|-------------------|--------------------|
A|-2222222-22222-----|-------------7x8x5--|
E|-0000000-00000-3p0-|-0000-3p0-00-5x6x3--|
   ....... .....       ....     ..
  \--------x3-------/


It's not like you can just kill me....

e|-------------------|--------------------|
B|-------------------|--------------------|
G|-------------------|--------------------|
D|-------------------|--------------------|
A|-2222222-22222-----|-------------7x8x5--|
E|-0000000-00000-3p0-|-0000-3p0-00-5x6x3--|
   ....... .....       ....     ..
  \--------x3-------/



1st verse: Watcha Watcha gonna do?......Fire!

2nd verse: Wanna, wanna be the man?.....Tired!

3rd verse: Bleedin' like a stuck pig....Don't matter!

e|-----------------|--------------------|
B|-----------------|--------------------|
G|-----------------|--------------------|
D|-----------------|--------------------|
A|-2222222---------|-------------7x8x5--|
E|-0000000---------|-0000-3p0-00-5x6x3--|
   .......           ....     ..
  \-------x3------/


1st Pre-chorus: Can I interest you in nothing...

2nd Pre-chorus: No one loves ya baby now...

3rd Pre-chorus after Bridge: Disciple of Kaos...

e|-----------------|----------------------|
B|-----------------|----------------------|
G|-----------------|----------------------|
D|-----------------|----------------------| x2
A|-2222222---3---3-|--------------7x8x5---|
E|-0000000-0-1-0-1-|--0000-3p0-00-5x6x3---|
   ......  . . . .    ....     ..
  \-------x3------/


e|-------------------|
B|-------------------|
G|-------------------|
D|-9-7-9------5-4-3--| x4
A|-7-5-7------5-4-3--|
E|-7-5-7--00--3-2-1--|
          ..


Yeah....Yeah....Yeah....

e|-----------------|--------------------|
B|-----------------|--------------------|
G|-----------------|--------------------|
D|-----------------|--------------------|
A|-2222222---------|-------------7x8x5--|
E|-0000000---------|-0000-3p0-00-5x6x3--|
   .......           ....     ..
  \-------x3------/    


Back to 3rd verse


Chorus: The battle...the war!

e|-------------------|--------------------|
B|-------------------|--------------------|  
G|-------------------|--------------------|  
D|-9-7-9------5-4-3--|-9-7-9------8-8-----|  
A|-7-5-7------5-4-3--|-7-5-7------8-8-----| 
E|-7-5-7--00--3-2-1--|-7-5-7--00--6-6-----|  
          ..                  ..                       
   \-------x3------/


The battle...the war!

e|-------------------|
B|-------------------|
G|-------------------|
D|-9-7-9------5-4-3--| x4
A|-7-5-7------5-4-3--|
E|-7-5-7--00--3-2-1--|
          ..


Bridge

e|------------------------------------------------------------------|
B|------------------------------------------------------------------|
G|------------------------------------------------------------------|
D|-5-4-3------------------------------------------------------------|
A|-5-4-3--xx--2-----5-4-----4---3b--8-7---55--33---2-----5-4---4----|
E|-3-2-1--xx--0-----3-2-------5-----6-5---33--11---0-----3-2-----5--|
                                          ..  ..

e|------------------------------------------------|
B|------------------------------------------------|
G|------------------------------------------------|
D|----------------------5h65h65h6-----------------|
A|-3h43h43h43h43h43h4--------------8-7---55--33---|
E|---------------------------------6-5---33--11---|
                                         ..  ..

e|----------------------------|                          e|-x---|
B|----------------------------|                          B|-x---|
G|----------------------------|                          G|-x---| Fill 1
D|----------------------------| x3 (Use Fill 1 after     D|-----|
A|-22222--22222--22222--22222-|    2nd time only)        A|-----|
E|-00000--00000--00000--00000-|                          E|-----|
   .....  .....  .....  .....


Inside job, ya got a revolution...

e|------------------------------------|
B|------------------------------------|
G|-------4-------3-------2------------|
D|-------4-------3-------2-------8\7--| x2
A|-------------------------------6\5--|
E|-00000---00000---00000---00000------|
   .....   .....   .....   .....


Why do you stay here?

e|------------------------------------|
B|------------------------------------|
G|------------------------------------|
D|-------4-------3-------2-------8\7--| x2
A|-------------------------------6\5--|
E|-00000---00000---00000---00000------|
   .....   .....   .....   .....

e|---------------------------------------------------------------------|
B|---------------------------------------------------------------------|
G|---------------------------------------------------------------------|
D|---------------------------------------------------------------------|
A|-88888888-777-5-7-88888888-777-5-7-88888888-777-5-7------------------|
E|-66666666-555-3-5-66666666-555-3-5-66666666-555-3-5--6-5-3-5-6-5-3-5-|
   ........         ....


e|-------------------------------------------------------------------|
B|-------------------------------------------------------------------|
G|-------------------------------------------------------------------|
D|-------------------------------------------------------------------|
A|-8-7-5-7-8-7-5-7--2222222---------------------------------7x8x5----|
E|-6-5-3-5-6-5-3-5--0000000---------------------------------5x6x3----|    
   . . . . . . . .  ......


Go to 3rd Pre-chorus after Bridge


Closing: Whatcha whatcha gonna do?....Yeah Yeah!

e|--------------------------------------------------------------|---------|
B|--------------------------------------------------------------|---------|
G|--------------------------------------------------------------|---------|
D|-9-7-9----------9-7-9----------9-7-9----------9-7-9----5-4-3--|-2--2----|
A|-7-5-7----------7-5-7----------7-5-7----------7-5-7----5-4-3--|-2--2----|
E|-7-5-7-00000000-7-5-7-00000000-7-5-7-00000000-7-5-7-00-3-2-1--|-0--0----|
         ........       ........       ........       ..
  \--------------------------x2-------------------------------/


This is my first submission. Hope you all enjoy it! 

If you have any questions or comments, feel free to email me.

Thanks!
Tap to rate this tab
# A B C D E F G H I J K L M N O P Q R S T U V W X Y Z