Song name
# A B C D E F G H I J K L M N O P Q R S T U V W X Y Z

Overkill - Gasoline Dream tab

Author/Artist: Overkill
Title: Gasoline Dream
Album: W.F.O.
Transcribed by: Jan Werthwein
Email: yawn40@hotmail.com

This  is the acoustic ending to the song, Gasoline Dream.
Usually, the tab version doesn't include this part, which
I think sounds very cool.  Anyway, here it is, i figured it out myself, 
so it may not be 100accurate.


                                     Let ring 
-------------------------------------0----------------------------------------
----------------4----5----5----3---------3------------------------------------
-0----0----4----4----5----5----4-------------4--\-----------------------------
-2----2-----------------------------------------------------------------------
-----------2----2----3----3----2----------------------------------------------
-0----0-----------------------------------------------------------------------
                                                                              

------------------------------------------------------------------------------
------------------------------------------------------------------------------
-2---------2------------4-----------2-----------------------------------------
------------------------------------------------------------------------------
-0----0---------0-h-2-------0-h-2-------0-h-2---------------------------------
------------------------------------------------------------------------------
                                                                              
Fades out...
Tap to rate this tab
# A B C D E F G H I J K L M N O P Q R S T U V W X Y Z