Song name
# A B C D E F G H I J K L M N O P Q R S T U V W X Y Z

Overkill - Infectious tab

Infectious
Overkill
Overkill - End of the Line... Tab Page!

These are the basics of this song

                                                                         
D#||-----------------------------------|--------------------------------|
A#||-----------------------------------|--------------------------------|
F#||*----------------------------------|--------------------------------|
C#||*----------------------------------|--------------------------------|
G#||-------------------------------0h1-|--------------------------------|
D#||---2-2-2-2-2-2-2-2-2-2-2-2-2h3-----|--2-2-2-2-2-2-2-2-2h3p0--2h3-0--|


                                                                      
----------------------------------|---------------------------------||
----------------------------------|---------------------------------||
----------------------------------|--------------------------------*||
----------------------------------|--------------------------------*||
------------------------------0h1-|-----------------------------1---||
--2-2-2-2-2-2-2-2-2-2-2-2-2h3-----|--2-2-2-2-2-2-2-2-2h3p0--2h3-----||


                                                                        
-----------------------------------|----------------------------------||
-----------------------------------|----------------------------------||
*----------------------------------|---------------------------------*||
*----------------------------------|---------------------------------*||
-----------------------4---5---7-8-|--------------------4/5---7/8-5---||
---0-0-0-0-0-0-0-0-0-0-2-0-3-0-5/6-|--0-0-0-0-0-0-0-0-0-2/3-0-5/6-3---||
Tap to rate this tab
 
# A B C D E F G H I J K L M N O P Q R S T U V W X Y Z