Song name
# A B C D E F G H I J K L M N O P Q R S T U V W X Y Z

Overkill - Under One tab

Under One
Overkill
Guitar

More of this song soon to come
                                                                             
D#||-------------------------------------||---------------------------------|
A#||-------------------------------------||---------------------------------|
F#||-------------------------------------||*--------------------------------|
C#||-------------------------------------||*--------------------------------|
G#||--4/6---4----------------------------||-------6/7------------6/7--------|
D#||-----------5--4----4h5h6-5--4--2-1r--||---0-0-4/5--0-0-0-0-0-4/5--0-0-0-|


                                 3x                       3x
---------------------------------||-----------------------||
---------------------------------||-----------------------||
--------------------------------*||*---------------------*||
--------------------------------*||*---------------------*||
------6/7------------6/7----3/5--||-----------------------||
--0-0-4/5--0-0-0-0-0-4/5--0-1/3--||---0-0-0-4--5--0-1--3--||


                                                                  
----------------------|--------------------|---------------------|
----------------------|--------------------|---------------------|
*---------------------|--------------------|---------------------|
*---------------------|--------------------|---------------------|
---2--------5--3------|--6------------6----|--2--------5--3------|
---0--------3--1------|--4------------4----|--0--------3--1------|


                      
--------------------||
--------------------||
-------------------*||
-------------------*||
--8-----------------||
--6-----------------||
Tap to rate this tab
 
# A B C D E F G H I J K L M N O P Q R S T U V W X Y Z