Song name
# A B C D E F G H I J K L M N O P Q R S T U V W X Y Z

Overseer - Slayed tab

Title: SLAYED
Artist: OVERSEER
Album: WRECKAGE
Tuning: DROP D

Little known DJ, but I love his music,
its mainly electronica, but I'll tried to make it playable for guitar;
Listen to track for the timings

INTRO:

E|-----------------------------|-----------------------------|
B|---------------------x-x-x-x-|---------------------x-x-x-x-|
G|---------------------x-x-x-x-|---------------------x-x-x-x-|
D|---------------------x-x-x-x-|---------------------x-x-x-x-|
A|----5---5----5---5---x-x-x-x-|----5-----5---8---5--x-x-x-x-|
D|--0---0----------------------|-0-----0---------------------|

VERSE I: The bass notes are played by a bass, but its more fun to play both

E|-------------------------|    |-------------------------|
B|-------------------------|    |-------------------------|
G|-------------------------|    |-------------------------|
D|-------------------------|:x4 |-----3-3-3-3-----3-3-3-3-|:x2 (then back
A|-----5-5-5-5-----5-5-5-5-|    |-------------------------|     to 1st bit
D|-0------------0----------|    |-3------------3----------|     (twice))

BRIDGE I:

E|--------------------|-------------------|--------------------|-----------------|
B|--------------------|-------------------|--------------------|-----------------|
G|--------------------|-------------------|--------------------|-----------------|
D|--------------------|-------------------|--------------------|-----------------|
A|-5--3--3-3--5-3-5-5-|-5--3--3-3--5--3-5-|-8--6--6-6--8-6-8-8-|-8--6--6-6--8--6-|
D|--------------------|-------------------|--------------------|-----------------|

VERSE II:

E|-------------------------|-------------------------|
B|-------------------------|-------------------------|
G|-------------------------|-------------------------|
D|-----7-7-7-7-----7-7-7-7-|-----8-8-8-8-----8-8-8-8-|:x3
A|-----5-5-5-5-----5-5-5-5-|-----5-5-5-5-----5-5-5-5-|
D|-0------------0----------|-0------------0----------|

E|-------------------------|--------------------|
B|-------------------------|--------------------|
G|-------------------------|--5-----------------|
D|-----7-7-7-7-----7-7-7-7-|--5----5----x-x-x-x-|
A|-----5-5-5-5-----5-5-5-5-|--3----5----x-x-x-x-|
D|-0------------0----------|-------5----x-x-x-x-|


CHORUS:

E|----------------|------------------------|
B|----------------|------------------------|
G|-7--------------|-7-------5--------------|
D|-7--------------|-7-------5---5--x-3-x-x-|
A|-5--------------|-5-------3---5--x-3-x-x-|
D|-0--------------|-0-----------5--x-3-x-x-|


E|----------------|-----------------------------|
B|----------------|-----------------------------|
G|-7--------------|-7-------5---5---------------|
D|-7--------------|-7-------5---5--5-5-5--3-3-3-|
A|-5--------------|-5-------3---3--5-5-5--3-3-3-|
D|-0--------------|-0--------------5-5-5--3-3-3-|

BASS INTERLUDE:

REPEAT OF INTRO (2:31)

VERSE III: Same as verse II, just without the bass D's for the first bit

SECOND INTERLUDE: Guitar II joins at this point, guitar I drops out

E|-----------------------------|    |----------|
B|-----------------------------|    |----------|
G|-----------------------------|    |----------|
D|-----------------------------|:x7 |----------|
A|--5-5-5--5-5--5--5-5-8-5-7-5-|    |-1--------|
D|-----------------------------|    |----------|

CHORUS VARIATION: Guitar II carrys on with second interlude riff
                  Guitar I does this

E|------------------------|    |-----------------------------|
B|------------------------|    |-----------------------------|
G|-7-------5--------------|    |-7-------5---5---------------|
D|-7-------5---5--x-3-x-x-|:x3 |-7-------5---5--5-5-5--3-3-3-|
A|-5-------3---5--x-3-x-x-|    |-5-------3---3--5-5-5--3-3-3-|
D|-0-----------5--x-3-x-x-|    |-0--------------5-5-5--3-3-3-|

OUTRO: Guitar I drops out

E|---------------------|---------------------|
B|---------------------|---------------------|
G|---------------------|---------------------|
D|---------------------|---------------------|: Repeat as Necessary
A|-5-5-5--5--5--5--5-7-|-5-7-5--5--5--5--5-7-|
D|---------------------|---------------------|

Bass ends on D

There you go, for the right sound find a way to put fuzztone on your guitar
Cool Beans
Tap to rate this tab
 
# A B C D E F G H I J K L M N O P Q R S T U V W X Y Z