Song name
# A B C D E F G H I J K L M N O P Q R S T U V W X Y Z

Overseer - Horndog tab

Artist: Overseer
Song: Horndog
Album: Wreckage
Tuning: Standard

I got some of the lyrics of the internet but it didnt include them all and theyre 
wrong. Theyre really hard to make out. Im at mouldysandwich@hotmail.co.uk for comments.

Intro:
|-----------------------------------------------------|
|-----------------------------------------------------|
|-----------------------------------------------------| x4
|--9--9-------------------9--9------------------------|
|--9--9-------------------9--9------------------------|
|--7--7---0-0--2-2--3--5--7--7---10-10--9-9--7--5-----|
   |PM------------------------------------------------|

Bridge:
   Hit me with            Hit me with
   the horndog!           the horndog!
|----------------------------------------------------------------|
|----------------------------------------------------------------|
|----------------------------------------------------------------| x3
|----------------9--9-------------------9--9---------------------|
|----------------9--9-------------------9--9---------------------|
|----------------7--7---0-0--2-2--3--5--7--7---10-10--9-9--7--5--|
                (B5)
   Hit me with             Hit me with
   the horndog!            the horndog!
|---------------------------------------------|
|---------------------------------------------|
|---------------------------------------------|
|----------------9--9-------------------9--9--|
|----------------9--9-------------------9--9--|
|----------------7--7---0-0--2-2--3--5--7--7--|

Verse:
(Bass and Drums only)

Don't sweat it, time to test it,
Just get messed up, throw ya best up.
Don't sweat it, time to test it,
Just get messed up, throw ya best up.
Don't sweat it, time to test it,
Just get messed up, throw ya best up.
Don't sweat it, time to test it,
Just get messed up, throw ya best up.

CHORUS:
       Why dont you       Why dont you
       hit me with         hit me with
       the horndog!        the horndog!
|------------------------------------------|
|------------------------------------------|
|------------------------------------------| x3
|--9--9----------------9--9----------------|
|--9--9----------------9--9----------------|
|--7--7----------------7--7----------------|

       Why dont you
       hit me with         (Something I
       the horndog!       cant make out)
|------------------------------------------|
|------------------------------------------|
|------------------------------------------|
|--9--9----------------9--9----------------|
|--9--9----------------9--9----------------|
|--7--7----------------7--7----------------|

Verse:
Don't sweat it, time to test it,
Just get messed up, throw ya best up.
Don't sweat it, time to test it,
Just get messed up, throw ya best up.
(B5 x2)Don't sweat it, time to test it,
Just get messed up, throw ya best up.
Don't sweat it, time to test it,
Just get messed up, throw ya best up.

Breakdown:
(Starts off as a techno beat with no guitar)
The words are something like: Breakdown, Hit me with the. Im not sure about it though.

Then:
|--------------------------------------|
|--------------------------------------|
|--------------------------------------|
|--9--9------9--9------9--9------9--9--|
|--9--9------9--9------9--9------9--9--|
|--7--7------7--7------7--7------7--7--|

|-----------------------------------------------------|
|-----------------------------------------------------|
|-----------------------------------------------------| x2
|--9--9-------------------9--9------------------------|
|--9--9-------------------9--9------------------------|
|--7--7---0-0--2-2--3--5--7--7---10-10--9-9--7--5-----|
          |PM----------|         |PM------------------|

|--------------------------------------------------|
|--------------------------------------------------|
|--------------------------------------------------| x4
|--9--9-------------------9--9---------------------|
|--9--9-------------------9--9---------------------|
|--7--7---0-0--2-2--3--5--7--7---10-10--9-9--7--5--|

  (Him shouting something over the top)
|--------------------------------------------------|
|--------------------------------------------------|
|--------------------------------------------------| x4
|--9--9-------------------9--9---------------------|
|--9--9-------------------9--9---------------------|
|--7--7---0-0--2-2--3--5--7--7---10-10--9-9--7--5--|

Outro:
 Hit me with  Hit me with  Hit me with  Hit me with
 the horndog! the horndog! the horndog! the horndog!
|--------------------------------------------------|
|--------------------------------------------------|
|--------------------------------------------------|
|--9--9-------------------9--9---------------------|
|--9--9-------------------9--9---------------------|
|--7--7---0-0--2-2--3--5--7--7---10-10--9-9--7--5--|

 Hit me with  Hit me with  Hit me with (Him shouting
 the horndog! the horndog! the horndog!  something)
|--------------------------------------------------|
|--------------------------------------------------|
|--------------------------------------------------|
|--9--9-------------------9--9---------------------|
|--9--9-------------------9--9---------------------|
|--7--7---0-0--2-2--3--5--7--7---10-10--9-9--7--5--|

 Hit me with  Hit me with  Hit me with  Hit me with
 the horndog! the horndog! the horndog! the horndog!
|--------------------------------------------------|
|--------------------------------------------------|
|--------------------------------------------------|
|--9--9-------------------9--9---------------------|
|--9--9-------------------9--9---------------------|
|--7--7---0-0--2-2--3--5--7--7---10-10--9-9--7--5--|

 Hit me with  Hit me with  Hit me with (Him shouting
 the horndog! the horndog! the horndog!  something)
|--------------------------------------------------|
|--------------------------------------------------|
|--------------------------------------------------|
|--9--9-------------------9--9---------------------|
|--9--9-------------------9--9---------------------|
|--7--7---0-0--2-2--3--5--7--7---10-10--9-9--7--5--|

|--------|
|--------|
|--------|
|--9--9--|
|--9--9--|
|--7--7--|
Tap to rate this tab
# A B C D E F G H I J K L M N O P Q R S T U V W X Y Z