Song name
# A B C D E F G H I J K L M N O P Q R S T U V W X Y Z

Overtone - Rule Number 1 Wag Mong Aaminin tab

Help us improve GuitareTab! Take a short survey!
Song: Rule#1 (Wag Mong Aaminin) 
Band: Overtone
Tabbed by: Gio Agudo


Intro:
e|---------------------------------------|
B|---------------------------------------|
G|-777-777-777-/12-11-------------/12-11-|
D|-777-777-777--------777-777-777--------|
A|-555-555-555-/10-9--777-777-777-/10-9--|
E|--------------------555-555-555--------|
continued...
e|-------------------------------------------|
B|-------------------------------------------|
G|---/99-/1010-/121212---/1414-/1010-/121212-|
D|-5-------------------5---------------------|
A|-5-/77-/9-9--/101010-5-/1212-/9-9--/101010-|
E|-3-------------------3---------------------|


Verse I:
e|------------------------------------|
B|------------------------------------|
G|-x----------------------------------|
D|-x-----55-5~-------9~-------5~------|
A|-x-----55-5~-------9~-------5~------|
E|-------33-3~-------7~-------3~------|

e|------------------------------------|
B|-------3-------3--------3--------3--|
G|---2--------2-------2--------2------|
D|-0---0----0---0---0---0----0---0----|
A|------------------------------------|
E|------------------------------------|
continued...
e|------------------------------------|
B|-------3-------3--------3--------3--|
G|---2--------2-------2--------2------|
D|-0---0----0---0---0---0----0---0----|
A|------------------------------------|
E|------------------------------------|


Repeat Intro


Verse II:
e|-----------------------------------------------------------------|
B|-----------------------------------------------------------------|
G|-777-777-777-777-------------------------------------------------|
D|-777-777-777-777-777-777-777-777-999-999-999-999-555-555-555-555-|
A|-555-555-555-555-777-777-777-777-999-999-999-999-555-555-555-555-|
E|-----------------555-555-555-555-777-777-777-777-333-333-333-333-|
   ... ... ... ... ... ... ... ... ... ... ... ... ... ... ... ...

e|---------------------------------------------------------------|
B|-7h9-h9-h9-h9-h9-h9-h9-h9-h9-h9-7h9-h9-h9-h9-h9-h9-h9-h9-h9-h9-|
G|-7------------------------------7------------------------------|
D|---------------------------------------------------------------|
A|---------------------------------------------------------------|
E|---------------------------------------------------------------|
continued...
e|---------------------------------------------------------------|
B|-7h9-h9-h9-h9-h9-h9-h9-h9-h9-h9-7h9-h9-h9-h9-h9-h9-h9-h9-h9-h9-|
G|-7------------------------------7------------------------------|
D|---------------------------------------------------------------|
A|---------------------------------------------------------------|
E|---------------------------------------------------------------|


Chorus:
e|------------------------------------------------------------|
B|------------------------------------------------------------|
G|-77-----7-/99-/1010-/12121212--7777777----------------------|
D|-77-77-------------------------7777777-7777777-555555555555-|
A|-55-77--5-/77-/9-9--/10101010--5555555-7777777-555555555555-|
E|----55---------------------------------5555555-333333333333-|

e|-----------------------------------------------3~--|
B|-----------------------------------------------3~--|
G|-77-----7-/99-/1010-/12121212--7777777---------0~--|
D|-77-77-------------------------7777777-7777777-----|
A|-55-77--5-/77-/9-9--/10101010--5555555-7777777-2~--|
E|----55---------------------------------5555555-3~--|


Repeat Intro, Verse II and Chorus


Bridge:
Gtr I
e|---------------------------------------------------------------|
B|-7h9-h9-h9-h9-h9-h9-h9-h9-h9-h9-7h9-h9-h9-h9-h9-h9-h9-h9-h9-h9-|
G|-7------------------------------7------------------------------|
D|---------------------------------------------------------------|
A|---------------------------------------------------------------|
E|---------------------------------------------------------------|
continued...
e|---------------------------------------------------------------|
B|-7h9-h9-h9-h9-h9-h9-h9-h9-h9-h9-7h9-h9-h9-h9-h9-h9-h9-h9-h9-h9-|
G|-7------------------------------7------------------------------|
D|---------------------------------------------------------------|
A|---------------------------------------------------------------|
E|---------------------------------------------------------------|


Gtr II
e|-------3~----------3~--|
B|-3~----3~----3~----3~--|
G|-4~----0~----4~----0---|
D|-4~----------4~--------|
A|-2~----2~----2~----2~--|
E|-------3~----------3~--|


Gtr I
e|---------------------------------------------------|
B|---------------------------------------------------|
G|-777-777-777-777-777-777-/777-/999-/111111-/121212-|
D|-777-777-555-555-555-555---------------------------|
A|-555-555-555-555-555-555-/555-/777-/9-9-9--/101010-|
E|---------------------------------------------------|
   ... ... ... ... ... ...


Chorus II:
e|-2~----------------------------------------------------------|
B|-3~----------------------------------------------------------|
G|-2~--2~--7-/99-/1010-/12121212--7777777----------------------|
D|-0~--2~-------------------------7777777-7777777-555555555555-|
A|-----0~--5-/77-/9-9--/10101010--5555555-7777777-555555555555-|
E|----------------------------------------5555555-333333333333-|

e|--------------------------------------------------------|
B|--------------------------------------------------------|
G|-777-777---------7-/99-/1010-/12121212--7777777---------|
D|-777-777-777-777------------------------7777777-7777777-|
A|-555-555-777-777-5-/77-/9-9--/10101010--5555555-7777777-|
E|---------555-555--------------------------------5555555-|
continued...
e|--------------------3~--|
B|--------------------3~--|
G|----------7777------0~--|
D|-5555555--7777-7777-----|
A|-5555555--5555-7777-2~--|
E|-3333333-------5555-3~--|


Outro:
e|---------------------------------------|
B|---------------------------------------|
G|-777-777-777-/12-11-------------/12-11-|
D|-777-777-777--------777-777-777--------|
A|-555-555-555-/10-9--777-777-777-/10-9--|
E|--------------------555-555-555--------|
continued...
e|---------------------------------|
B|---------------------------------|
G|----/12-11-----/12-11-----/12-11-|
D|-55---------55---------55--------|
A|-55-/10-9---55-/10-9---55-/10-9--|
E|-33---------33---------33--------|
Related for Rule Number 1 Wag Mong Aaminin tab