Song name
# A B C D E F G H I J K L M N O P Q R S T U V W X Y Z

Owen Pallett - Many Lives - 49 Mp tab

e|-------------------------------10----11-10----10--------------------------|
B|-------11-10-------11-13-13-11----11-------13----13-11-10-11-13-11-10-----|
G|-------------10-12----------------------------------------------------12--|
D|----12--------------------------------------------------------------------|
A|-10-----------------------------------------------------------------------|
E|--------------------------------------------------------------------------|

e|-------------------------------10----11-10----10--------------------------|
B|-------11-10-------11-13-13-11----11-------13----13-11-10-11-13-11-10-----|
G|-------------10-12----------------------------------------------------12--|
D|----12--------------------------------------------------------------------|
A|-10-----------------------------------------------------------------------|
E|--------------------------------------------------------------------------|

e|-------10-10----11-10----10------------10-10----11-10----10---------------|
B|-------------13-------13----13-11------------13-------13----13-11---------|
G|--------------------------------------------------------------------------|
D|-13-------------------------------10--------------------------------------|
A|------------------------------------------------------------------10------|
E|--------------------------------------------------------------------------|

e|--------------------------------------------------------------------------|
B|-13-13-11-15-13-11-13-11-10--10-11-8-11----11---11----11---11-------------|
G|----------------------------------------10----8---------------------------|
D|---------------------------------------------------10----8----------------|
A|--------------------------------------------------------------------------|
E|--------------------------------------------------------------------------|

e|--------------------------------------------------------------------------|
B|-------11-10-------13-15-15-----------------------------------------------|
G|-------------10-12--------------------------------------------------------|
D|----12--------------------------------------------------------------------|
A|-10-----------------------------------------------------------------------|
E|--------------------------------------------------------------------------|

e|--------------------------------------------------------------------------|
B|-------11-10-------13-15-15-----------------------------------------------|
G|-------------10-12--------------------------------------------------------|
D|----12--------------------------------------------------------------------|
A|-10-----------------------------------------------------------------------|
E|--------------------------------------------------------------------------|

e|--------------------------------------------------------------------------|
B|-------13-11-------13-15-15-----------------------------------------------|
G|-------------10-12--------------------------------------------------------|
D|----15--------------------------------------------------------------------|
A|-13-----------------------------------------------------------------------|
E|--------------------------------------------------------------------------|

e|-------18-17-15-----------------------------------------------------------|
B|--------------------------------------------------------------------------|
G|----------------19-17-15-15-----------------------------------------------|
D|----15--------------------------------------------------------------------|
A|-13-----------------------------------------------------------------------|
E|--------------------------------------------------------------------------|

e|----18-17-15-------------------18-17-15-----------------------------------|
B|--------------------------------------------------------------------------|
G|-15----------19-15-17-17----15----------19-15-17-17-----------------------|
D|--------------------------------------------------------------------------|
A|--------------------------------------------------------------------------|
E|--------------------------------------------------------------------------|

e|----18-17-15--------------------------------------------------------------|
B|--------------------------------------------------------------------------|
G|-15----------19-15-17-17-15-17-15-15-15-17-15-15-15-----------------------|
D|----------------------------------------------------12--------------------|
A|--------------------------------------------------------------------------|
E|--------------------------------------------------------------------------|
Tap to rate this tab
 
# A B C D E F G H I J K L M N O P Q R S T U V W X Y Z