Song name
# A B C D E F G H I J K L M N O P Q R S T U V W X Y Z

Owen - A Fever Analog tab

Artist: Owen
Song: 	A Fever Analog
Album: 	Daytrotter Session
Tuning:	CGDGBD (capo on the 5th fret)


Verse:

D |------------------------------------------------------|
B |------------------------------------------------------|
G |--0-----------0-------------0-----------0-------------|
D |--0----5s4p0--|-------2p0---0----5s4p0--|----0--------|
G |--0---0-------|--0h2p0------0---0-------|--4-----0----|
C |--0--0--------2-------------0--0--------4------6------|

		 You fucked a fever, in me,

D |------------------------------------------------------|
B |------------------------------------------------------|
G |--0-----------0---------------0-----------------------|
D |--0----5s4p0--|-------2p0-----0------------0-----0----|
G |--0---0-------|--0h2p0------------2h4p2p0--0--0h2-----|
C |--0--0--------2-------------4--4-----------2----------|

		 and I'm burning up.

D |------------------------------------------------------|
B |------------------------------------------------------|
G |--0-----------0-------------0-----------0-------------|
D |--0----5s4p0--|-------------0----5s4p0--|-------0-----|
G |--0---0-------|--2h4p2--0---0---0-------|--0h2h4---0--|
C |--0--0--------2--------6----0--0--------4---------6---|

     A hundred and two,	       a hundred and three,

D |------------------------------------------------------|
B |------------------------------------------------------|
G |--0-----------0---------------0-----------------------|
D |--0----5s4p0--|---------------0------------0-----0----|
G |--0---0-------|--2h4p2--0---------2h4p2p0--0--0h2-----|
C |--0--0--------2--------6----4--4-----------2----------|

		 cold sweats,	     I'm in need of...


Pre-chorus:

D |------------------------------------------------------|
B |-----3---0---------------------3---0------------------|
G |------2---------------0---------2---------------------|
D |---0-------------5s4---0-----0-------------5s4-----0--|
G |---------------0-------------------------0-----2p0----|
C |--0----0-----2--------------0----0-----4--------------|

		newwww	...	  	  sheeeeets.

D |------------------------------------------------------|
B |-----3---0--------------------------------------------|
G |------2---------------0-------0-----------------------|
D |---0-------------5s4---0------0------------0-----0----|
G |---------------0------------------2h4p2p0--0--0h2-----|
C |--0----0-----2--------------4--4-----------2----------|


Verse:

You fucked a flu in me,
and I'm throwing up:
dinner for two, and mixed drinks.
I'm on my knees as it passes


Pre-chorus (x2):

throooough ... meeee.


// On the 2nd one, end with this transition:

D |--------------|
B |--------0-----|
G |------2---2---|
D |----0---------|
G |--------------|
C |--5-----------|


Chorus:

D |--------0------------------------0--------------------|
B |--------------------0----------------0---------0------|
G |------0-----------2---2--------0-------------2---2----|
D |--5s4-----------0----------5s4-------------0----------|
G |--|------------------------|--------------------------|
C |--0-----------2------------0-------0-----4------------|

			 I've been sick before, nothing

D |--------0------------------------0--------------------|
B |--------------------0----------------0---------0------|
G |------0-----------2---2--------0-------------2---2----|
D |--5s4-----------0----------5s4-------------0----------|
G |--|------------------------|--------------------------|
C |--0-----------2------------0-------0-----4------------|

    like this.   I swore      if the room started spinning,

D |------------------------------------------------------|
B |------------------------------------------------------|
G |--0-----------0-------------0-----------0-------------|
D |--0----5s4p0--|-------2p0---0----5s4p0--|----0--------|
G |--0---0-------|--0h2p0------0---0-------|--4-----0----|
C |--0--0--------2-------------0--0--------4------6------|

		    I'd leave.

D |------------------------------------------------------|
B |------------------------------------------------------|
G |--0-----------0---------------0-----------------------|
D |--0----5s4p0--|-------2p0-----0------------0-----0----|
G |--0---0-------|--0h2p0------------2h4p2p0--0--0h2-----|
C |--0--0--------2-------------4--4-----------2----------|


Verse 3:

You fucked this sickness in me,
but I'm building up
white blood cells, immunity.
So if by chance it happens again,


Chorus transition:

D |--------------|
B |--------0-----|
G |------2---2---|
D |----0---------|
G |--------------|
C |--5-----------|

             I won't


Chorus 2:

D |--------0------------------------0--------------------|
B |--------------------0----------------0---------0------|
G |------0-----------2---2--------0-------------2---2----|
D |--5s4-----------0----------5s4-------------0----------|
G |--|------------------------|--------------------------|
C |--0-----------2------------0-------0-----4------------|

     be...		      bed... 

D |--------0------------------------0--------------------|
B |--------------------0----------------0---------0------|
G |------0-----------2---2--------0-------------2---2----|
D |--5s4-----------0----------5s4-------------0----------|
G |--|------------------------|--------------------------|
C |--0-----------2------------0-------0-----4------------|

		 ridden.


Chorus to Outro transition:

D |--------0------------------|
B |------------0--------0-----|
G |------0------------2---2---|
D |--5s4------------0---------|
G |--|------------------------|
C |--0-------0----2-----------|


Outro:

D |--------0------------------------0--------------------|
B |--------------------0----------------0---------0------|
G |------0-----------2---2--------0-------------2---2----|
D |--5s4-----------0----------5s4-------------0----------|
G |--|------------------------|--------------------------|
C |--0-----------2------------0-------0-----4------------|

     I've been sick, before,  nothing like this. I swore

D |--------0--------------------------0------------------|
B |--------------------0---------------------------------|
G |------0-----------2---2----------0----------0---------|
D |--5s4-----------0------------5s4-----------4-p0-0-----|
G |--|--------------------------|------------0----0------|
C |--0-----------2--------------0-----------4------------|

  if the room started spinning		    I'd make my way

D |-----------------------------------0------------------|
B |-------0----------------------------------------------|
G |-----------------0---------------0----------0---------|
D |--2p0-2---------4-p0-0-------5s4-----------4-p0-0-----|
G |--|------------0----0--------|------------0----0------|
C |--0-----------2--------------0-----------4------------|

     back to the beginning,	      and leave.

D |-----------------------------------0------------------|
B |-------0----------------------------------------------|
G |-----------------0---------------0----------0---------|
D |--2p0-2---------4-p0-0-------5s4-----------4-p0-0-----|
G |--|------------0----0--------|------------0----0------|
C |--0-----------2--------------0-----------4------------|

D |-----------------------------------0------------------|
B |-------0----------------------------------------------|
G |-----------------0---------------0----------0---------|
D |--2p0-2---------4-p0-0-------5s4-----------4-p0-0-----|
G |--|------------0----0--------|------------0----0------|
C |--0-----------2--------------0-----------4------------|

D |------------------|
B |-------0----------|
G |--------------2---|
D |--2p0-2-------|---|
G |--|-----------|---|
C |--0-----------2---|

	       (end)
Tap to rate this tab
# A B C D E F G H I J K L M N O P Q R S T U V W X Y Z