Song name
# A B C D E F G H I J K L M N O P Q R S T U V W X Y Z

Owen - Bad News tab

Tuning: DADF#BC# - Capo 4

Intro:
C#-------------------------------------------|
B--------------------------------------------|
F#-------------------------------------------|
D------2-2-----2-2------2-2------2-2---------|
A-------0-------0--------0--------2----------|
D----0-------2--------0--------2-------------|

Verse:
C#-------------------------------------------|
B-----------2p0----2h0-----------------------|
F#--------3-----3------3----3--2-------------|
D------2-2-----2-2------2-2------2-2---------|
A-------0-------0--------0--------2----------|
D----0--------2--------0--------2------------|

Pre-Chorus
C#---3--0-----------------|
B-----3--2p0-2---0--------|
F#-----------3-----2------|
D-------------------------|
A-------------------------|
D----0-------4-----2------|

Bridge:
C#-----------------------------------0--------------0---------------|
B----5------------5-----------5--------------5----------------------|
F#------3--------3--3------------3------3-------3------3------------|
D------6-----6-----6-----6------6------6-------6------6-------------|
A-----------------------------0----0--------------------------------|
D----0-----0---0-------0---------------------4----4-----------------|


Pre-outro:
C#---3--0------------------------------3-----3---------|
B-----3--0p2-2---0------------------2----0-------------|
F#-----------3-----2-3p2p0--------2-3------------------|
D--------------------------2---4-----------------------|
A------------------------------4-----------0-----------|
D----0-------4-----2-----------4----4--------0---------|


Chorus:
C#---0----x----0----0--------0----|
B----2----0----0----0--------0----|
F#---3----2----3----3--------3----|
D----2----2----4----4--end---3----|
A----0----2----4----0--------0----|
D----2----2----4----0--------0----|

Outro:
C#-----------------------------------0--------------0---------------|
B----5------------5-----------5--------------5----------------------|
F#------3--------3--3------------3------3-------3------3------------|
D------6-----6-----6-----6------6------6-------6------6-------------|
A-----------------------------0----0--------------------------------|
D----0-----0---0-------0---------------------4----4-----------------|

C#-----8----8----8--7-8---------------------------------------------|
B---5-----5----5---------------0-0-0-0-0----------------------------|
F------------------------------3-3~7-5-3----------------------------|
D------------------------a lot--------------------------------------|
A-------------------------------------------------------------------|
D-------------------------------------------------------------------|
Tap to rate this tab
# A B C D E F G H I J K L M N O P Q R S T U V W X Y Z